Miss May I - My Hardship Text Guitar Tab

Learn song with the online tabulature player
I am tabbing this song by ear, so if you have any suggestions or see any mistakes,
let me know and I will look into it. This is one of two guitars and I will have the
other uploaded as soon as it is finished. Thanks

Key:
. Palm Mute
* Tremolo Mute
x Mute Fretboard
\ Slide Down
/ Slide Up
h Hammer On
p Pull Off
~ Sustain
" Upstroke/Pick Up

Intro:
D|-------------------------|--------|
A|---------------------x8--|--------|
F|-------------------------|--------|
C|-------------------------|--------|
G|-------------------------|-8-8-8--|
C|-12-12-12-12-12-12-12-12-|-0-0-0--|

D|-------------------------|--------|
A|---------------------x3--|--------|
F|-------------------------|--------|
C|-------------------------|--------|
G|-------------------------|-8-8-8--|
C|-12-12-12-12-12-12-12-12-|-0-0-0--|

D|-------------------------|-------------------------------|---------------------|
A|---------------------x2--|-------------------------------|---------------------| x3
F|-------------------------|-------------------------------|---------------------|
C|-------------------------|-------------------------------|---------------------|
G|-------------------------|-------------------------------|-----------------1-1-|
C|-12-12-12-12-12-12-12-12-|-12-12-12^-12^-12^-12^-12^-12^-|-13p12-0-7h8p7-0-0-0-|


Verse I:
D|-----------------------------------------|---------------------|
A|-----------------------------------------|---------------------|
F|-----------------------------------------|---------------------|
C|-----------------------------------------|---------------------|
G|-----------------------------------------|-----------------0-0-|
C|-0-0-0-0-0-0-0-0-0-0-0-0-000-000-0-0-0-0-|-13p12-0-7h8p7-0-0-0-|
   . . . . . . . . . . . . ... ... . . . .         .       .

D|--------------------------------------------------------------|
A|--------------------------------------------------------------| x2
F|--------------------------------------------------------------|
C|--------------------------------------------------------------|
G|----------------------------------------------------------0-0-|
C|-0-0-0-0-000-000-0-0-0-0-000-000-0-0-0-0--13p12-0-7h8p7-0-0-0-|
   . . . . . . . . . . . . ... ... . . . .        .       .

D|--------------------------------------------------------|
A|--------------------------------------------------------|
F|--------------------------------------------------------|
C|--------------------------------------------------------|
G|--------------------------------------------------------|
C|-0-0-0-0-000-000-0-0-0-0-000-000-0-0-0-0--13p12-0-7h8p7-|
   . . . . ... ... . . . . ... ... . . . .        .

D|---------------------------------------------------------------------------|
A|---------------------------------------------------------------------------|  x2
F|---------------------------------------------------------------------------|
C|---------------------------------------------------------------------------|
G|---------------------------------------------------------------------15p12-|
C|-0-0-13p12-0-7h8p7-0-0-0-0-0-0-000-0-0-13p12-0-7h8p7-0-0-0-0-0-0-7h10------|
   . .       .       . . . . . . ... . .       .       . . . . . .


Pre-Chorus: x2
D|------------------------------------------|
A|------------------------------------------|
F|------------------------14-----14-----14~-|
C|------------------------------------------|
G|------------------------------------------|
C|-12-12-12-12-12-12-12-12--12-12--12-12----|
                     .  .   .  .   .  .

D|------------------------------------------------------------------------|
A|------------------------------------------------------------------------|
F|------------------------12-----12-----12~-----------------10---10---10~-|
C|------------------------------------------------------------------------|
G|------------------------------------------------------------------------|
C|-10-10-10-10-10-10-10-10--10-10--10-10-----8-8-8-8-8-8-8-8--8-8--8-8----|
                     .  .   .  .   .  .                  . .  . .  . .

D|------------------------|
A|------------------------|
F|------------------------|
C|-7---8-7-5-7------------|
G|--0-0-0-0-0-0-7h8p7-----|
C|-------------------8/10-|
    . . . . . . 


Chorus: x2
D|-------------------------------|
A|-------------------------------|
F|-------------------------------|
C|-0~-----3~-----5~-----8~---10~-|
G|-0~-----3~-----5~-----8~---10~-|
C|-0~-----3~-----5~-----8~---10~-|


Breakdown:
D|------------------------------------------------|
A|------------------------------------------------|
F|------------------------------------------------|
C|------------------------------------------------|
G|-0~------------------0-0-0-0-00-000----000--000-|
C|-0~------------------0-0-0-0-00-000----000--000-|
   *                   * * * * ** ...    ...  ...

D|----------------------|--------------------------------|
A|------------------x2--|--------------------------------|
F|----------------------|--------------------------------|
C|----------------------|--------------------------------|
G|-000-000-000-000-0000-|-0--0--0--0--00--0--0--0--0--00-|
C|-000-000-000-000-0000-|-0--0--0--0--00--0--0--0--0--00-|
   ... ... ... ... ....   *  *  *  *  **  *  *  *  *  **

D|----------------------|--------------------------------------|
A|------------------x2--|--------------------------------------|
F|----------------------|--------------------------------------|
C|----------------------|--------------------------------------|
G|-000-000-000-000-0000-|-0--0--0--0--00--000-000-000-000-0000-|
C|-000-000-000-000-0000-|-0--0--0--0--00--000-000-000-000-0000-|
   ... ... ... ... ....   *  *  *  *  ..  ... ... ... ... ....


Verse II:
D|-------------------------------------------------|
A|-------------------------------------------------|
F|-------------------------------------------------|
C|-------------------------------------------------|
G|-00--------------0-00~---------------------------|
C|-00--------------0-00~---------pickslide\\\\\\\--|
   ..              . .

D|-------------------------------------------------|
A|-------------------------------------------------|  x4
F|-------------------------------------------------|
C|-------------------------------------------------|
G|----8-12-8-----8-12-12\11--8-7-5-5------7--------|
C|-0-0-0--0-0-0-0-0--0------0-0-0-0-8-5-8--10-7-10-|
   . . .  . . . . .  .      . . . . 


Bridge: x2
D|-----------------------------|
A|-----------------------------|
F|-----------------------------|
C|-----------------------------|
G|---777-888-10--777-888-10--0-|
C|-8------------5------------0-|

D|----------------------------------------|---------------------------------------------|
A|-----------------------(first time)-----|---------------------------(second time)-----|
F|----------------------------------------|---------------------------------------------|
C|----------------------------------------|---------------------------------------------|
G|--5-5h8-7-5---3h5-5--5-5h8-7-5---12p8---|--8-8h12-10-8---7h8-8--8-8h12-11-8---15p12---|
C|-0-0---0-0-0-0---0--0-0---0-0-0-0----0--|-0-0----0--0-0-0---0--0-0----0--0-0-0-----0--|
   . .   . . . .   .  . .   . . . .    .    . .    .  . . .   .  . .    .  . . .     .


Pre-Chorus:
D|--------------------------|------------------------------|
A|----------------------x2--|------------------------------|
F|--------------------------|------------------------------|
C|--------------------------|------------------------------|
G|---777-888-10--777-888-10-|----777-888-10--101010-888-7--|
C|-8-----------5------------|--8-----------5---------------|


Chorus: x2
D|-------------------------------|
A|-------------------------------|
F|-------------------------------|
C|-0~-----3~-----5~-----8~---10~-|
G|-0~-----3~-----5~-----8~---10~-|
C|-0~-----3~-----5~-----8~---10~-|


Outro:
D|--------------------------------|----------------------|--------------|
A|--------------------------------|----------------------|--------------|
F|--------------------------------|----------------------|--------------|
C|--------------------------------|----------------------|--------------|
G|-0--0--0--0--00--0--0--0--0--00-|-000-000-000-000-0000-|-0-0-0-0-0000-|
C|-0--0--0--0--00--0--0--0--0--00-|-000-000-000-000-0000-|-0-0-0-0-0000-|
   *  *  *  *  **  *  *  *  *  **   ... ... ... ... ....   * * * * ....