Mountain - Mississippi Queen Text Guitar Tab

Learn the song with the online tablature player
              2x
G---|------------|------------|-----------|------------|---------|
D---|*-----5----*|------------|---9---7-9-|------------|---7---5-|
A---|*-------7\-*|------------|-----7-----|------------|-----7---|
E---|--5-7-------|-5/-7-7-7-7-|-7---------|-3/-5-5-5-5-|-5-------|

    VERSE START                                     2X
G---|------------|-----------|-----------|------------|
D---|*-----------|-----------|-----------|-----------*|
A---|*-5h7-7-7-7-|---7-0-5-7-|-5h7-7-7-7-|-------7---*|
E---|------------|-0---------|-----------|-0-3-0------|

G--------------|-----------|------------|---------|
D--------------|-7-7-0-5-7-|------------|-----7---|
A--------------|-----------|------------|-------7-|
E---3/-5-5-5-5-|-----------|-3/-5-5-5-5-|-5-7-----|

G--------------|-----------|------------|---------|
D--------------|-----------|------------|---------|
A---5/-7-7-7-7-|---7-0-5-7-|-5/-7-7-7-7-|-------7-|
E--------------|-0---------|------------|-0-3-0---|

                                                         VERSE END
G--------------|-----------|------------|---------|------|---------|
D--------------|---9-0-7-9-|------------|---7-0-5-|------|-----5---|
A--------------|-9---------|------------|---------|----7-|-------7\|
E---5/-7-7-7-7-|-----------|-3/-5-5-5-5-|-5-------|------|-5-7-----|

  [REPEAT VERSE] [REPEAT VERSE{LEAD}]

                     3X
G---|------------------|
D---|*-----5----------*|   END
A---|*-------7\-------*|
E---|--5-7-------------|