My Chemical Romance - The Ghost Of You Text Bass Tab

Learn the song with the online tablature player
Verse
0:13-0:38)
|-----------------------------------|
|-----------------------------------|
|-----------------------------------|
|-7(x24)-9(x4)-10(x4)-0(x16)-2(x8)~-|

|------------------------------------|
|------------------------------------|
|------------------------------------| Spills into Chorus
|-7(x24)-9(x4)-10(x4)-0(x16)-2(x16)--|

Chorus
0:39-0:59)
|------------------------------------------------|
|------------------------------------------------|
|------------------------------------------------|
|-3(x16)-0(x16)-77777-77777-75-55555-55555-5-73-|

|----------------------|
|----------------------|
|--------(2h3)---------|
|-3(x16)-------0(x16)--|

Verse
1:00-1:24)

Chorus 2
1:25-1:57)

|------------------------------------------------|
|------------------------------------------------| x 2
|------------------------------------------------|
|-3(x16)-0(x16)-77777-77777-75-55555-55555-5-73-|

|----------------------|
|----------------------|
|--------2h3-----------|
|-3(x16)-----0(x16)----|

Pause till Bridge

Bridge
2:12-2:38)
|------------------------------------------------|
|------------------------------------------------|
|------------------------------------------------|
|-77777~-77--33333~-33--99999~-99--22222~-2222---|

Then it goes through the same thing but ends a little different
each time.

2nd time around end with
|----------|
|----------|
|----------|
|-22222222-|

3rd time around end with
|----|
|----|
|----|
|-22-|

Lastly
|--------------------------------------|
|--------------------------------------|
|--------------------------------------|
|-77777~-77--33333~-33--9(x8)-10(x8)---|

Final Chorus is between 2:39-3:11 and is the same as chorus 2.

End on
|---|
|---|
|---|
|-0-|