Nirvana - Drain You Text Guitar Tab

Learn the song with the online tablature player
Album|Nevermind
Year|1991

Note: While playing this song live they seemed to of played it a whole step
higher, so just move everything up 2 frets from the studio version.

Intro/Verse

e|----------------------------------------------------------------|
b|----------------------------------------------------------------|
G|-2--2-2-0-6--6-6-0----------4--4-4-0----------------------------|
D|-2--2-2-0-6--6-6-0-4--4-4-x-4--4-4-0----------------------------|
A|-0--0-0-0-4--4-4-0-4--4-4-x-2--2-2-0----------------------------|
E|-------------------2--2-2-x-------------------------------------|
                              ^ (Distortion on 2nd time though)

Verse
x6)

Chorus

e|------------------------------------------------|
b|------------------------------------------------|
G|-9--9-9-----------------------------------------|
D|-9--9-9-12--12-12-0-9-9-9-9-9-9-9---------------|
A|-7--7-7-12--12-12-0-9-9-9-9-9-9-9---------------|
E|--------10--10-10-0-7-7-7-7-7-7-7---------------|

           (x3)
e|---------------------------------------|------------------|
b|---------------------------------------|------------------|
G|---------------------------------------|------------------|
D|-12-12-12-12-12-12-12-0-9-9-9-9-9-9-9--|--7~---5~---4~----|
A|-12-12-12-12-12-12-12-0-9-9-9-9-9-9-9--|--7~---5~---4~----|
E|-10-10-10-10-10-10-10-0-7-7-7-7-7-7-7--|--5~---3~---2~----|
                                           'I   like you'
Verse

Chorus

Interlude
Repeats from 1:33-2:23)
Just mess around with an F# chord through out the Interlude.

e|-(2)---------------(2)--------------------|
b|-(2)---------------(2)--------------------|
G|-(3)---------------(3)--------------------|
D|--4-----------------4---------------------|
A|--4-----------------4---------------------|
E|--2-2-2-2-2-2-2-2-2-2-2-2-2-2-2-2-2-2-----|

Then

e|------------------------------------------|
b|------------------------------------------|
G|-6/7--4~--5/6--7/8--9/10/11/12/13/15//----|
D|------------------------------------------|
A|------------------------------------------|
E|------------------------------------------|

Verse

Ending Chorus

e|------------------------------------------------|
b|------------------------------------------------|
G|-9--9-9-----------------------------------------|
D|-9--9-9-12--12-12-0-9-9-9-9-9-9-9---------------|
A|-7--7-7-12--12-12-0-9-9-9-9-9-9-9---------------|
E|--------10--10-10-0-7-7-7-7-7-7-7---------------|

           (x5)
e|---------------------------------------|------------------|
b|---------------------------------------|------------------|
G|---------------------------------------|------------------|
D|-12-12-12-12-12-12-12-0-9-9-9-9-9-9-9--|--7~---5~---4~----|
A|-12-12-12-12-12-12-12-0-9-9-9-9-9-9-9--|--7~---5~---4~----|
E|-10-10-10-10-10-10-10-0-7-7-7-7-7-7-7--|--5~---3~---2~----|
                                           'I   like you'

Please rate or comment on what you think :)