Nirvana - The Man Who Sold The World Text Guitar Tab

Learn song with the online tabulature player
Album| Unplugged In New York
Year| 1993/released Nov 1, 1994
Official DVD of concert| released on Nov 20, 2007

Tune down 1/2 step

Intro

e|------------------|----------------------|----|
b|------------------|----------------------|----|
G|-2-2-2-0--2h3p2-0-|-2-2-2-0--2h3p2-0-----|-2~-|
D|------------------|----------------------|----|
A|------------------|----------------------|----|
E|------------------|----------------------|----|


Chords Used:

    A   Dm    F    C    C5
e|--0----1----0----------------------|
b|--2----3----1----1-----------------|
G|--2----2----2----0-----5-----------|
D|--2----0----3----2-----5-----------|
A|--0---------3----3-----3-----------|
E|-----------------------------------|


                     A                       Dm
We passed upon the stairs spoken of was and when
                    A                       F
Although I wasn't there he said I was his friend
                  C                       A
Which came as a suprise I spoke into his eyes
                    Dm                    C5
I thought you died alone a long long time ago

(Keep plying C5 until Kurt say's 'Oh no')

Chorus

e|-------------------------------------------------------|
b|-------------------------------------------------------|
G|-------------2-3-5-------------------------------------|
D|------2-3-5--------------------0-2-3--------3----------|
A|-3-5---------------------0-1-3----------4-4---4--------|
E|--------------------1-3--------------------------------|


e|-------------------------------------------------------|
b|-------------------------------------------------------|
G|--------------------------------2-3-5------------------|
D|-------------0-2-3-------2-3-5-------------------0-2-3-|
A|------0-1-3---------3-5--------------------0-1-3-------|
E|-1-3-----------------------------------1-3-------------|


e|-------------------------|
b|--6--x-6-6-6-------------|
G|--6--x-6-6-6-------------|
D|--6--x-6-6-6-------------|
A|--4--x-4-4-4-------------|
E|-------------------------|

Intro

                         A                         Dm
I Laughed and shook his hand and made my way back home
                         A                           F
I searched for form and land for years and years I roamed
                     C                         A
I gazed a gazeless stare we marched a million hills
                   Dm                    C5
I must have died alone a long long time ago
  
Chorus      'Who knows'
              
e|-------------------------------------------------------|
b|-------------------------------------------------------|
G|-------------2-3-5-------------------------------------|
D|------2-3-5--------------------0-2-3--------3----------|
A|-3-5---------------------0-1-3----------4-4---4--------|
E|--------------------1-3--------------------------------|


e|-------------------------------------------------------|
b|-------------------------------------------------------|
G|--------------------------------2-3-5------------------|
D|-------------0-2-3-------2-3-5-------------------0-2-3-|
A|------0-1-3---------3-5--------------------0-1-3-------|
E|-1-3-----------------------------------1-3-------------|


e|-------------------------|
b|--6--x-6-6-6-------------|
G|--6--x-6-6-6-------------|
D|--6--x-6-6-6-------------|
A|--4--x-4-4-4-------------|
E|-------------------------|

Intro

Chorus

Intro

Solo

e|--------------------------------------------------------|
b|--------------------------------------------------------|
G|-2-2-2-0--2h3p2-0--2-2-2-0--2/8/9/10--9-10\9-9-9-9-9\---|
D|--------------------------------------------------------|
A|--------------------------------------------------------|
E|--------------------------------------------------------|

Play through next 2 bars twice

e|--------------------------------------------------------------|
b|--------------------------------------------------------------|
G|-2-2-2-0--2h3p2-0--2-2-2-0--2--4/10-10--10-10-10--10-10-10\9--|
D|--------------------------------------------------------------|
A|--------------------------------------------------------------|
E|--------------------------------------------------------------|

e|--------------------------------------------------------|
b|--------------------------------------------------------|
G|-9\7-7--7-7--7-7-7-7--7/9-9-9--9-9-9--9-9--9\-----------|
D|--------------------------------------------------------|
A|--------------------------------------------------------|
E|--------------------------------------------------------|

e|--------------------------------------------------------|
b|--------------------------------------------------------|
G|-2-2-2-0--2h3p2-0--2-2-2-0--2h3p2-0----2~~~-------------|
D|--------------------------------------------------------|
A|--------------------------------------------------------|
E|--------------------------------------------------------|

Feel free to comment and or rate :)