Papa Roach - Between Angels And Insects Text Guitar Tab

Learn the song with the online tablature player
                           BETWEEN ANGELS AND INSECTS
                            As recorded by Papa Roach
                          (From the 2000 Album INFEST)

Words and Music by Papa Roach

Gtr I (D A D G B E) - 'Gtr. 1'
Gtr II (D A D G B E) - 'Gtr. 2'
Gtr III (D A D G B E) - 'Gtr. 3'

 Intro
  Moderate metal Q=94
  [N.C.] Dm                       Bb5
 4/4
  Gtr I
  E E S E S  E S S +S  S S S   E E S E S  E S S +S  S S S
|----------------------------|----------------------------|
|----------------------------|----------------------------|
|----------------------------|----------------------------|
|----------------------------|----------------------------|
|---8---7---10---8-(8)---7h8-|---8---7---10---8-(8)---7h8-|
|-0---0---0----0-------0-----|-8---8---8----8-------8-----|

   F/A
  E E S E S  E S S +S  S S S
|------------------------------|
|------------------------------|
|------------------------------|
|------------------------------|
|---8---7---10---8-(8)---7-8---|
|-7---7---7----7-------7-------|

   C                                Dm
  Gtr I
   E E  S E  S  E  S S +S   S S S    E E S E S  E S S +S  S S S
|---------------------------------|-----------------------------|
|---------------------------------|-----------------------------|
|---------------------------------|-----------------------------|
|---------------------------------|-----------------------------|
|----8----7----10----8-(8)----8p7-|----8---7---10---8-(8)---7h8-|
|-10---10---10----10-------10-----|--0---0---0----0-------0-----|
|
| Gtr II
|  H            Q       E     E      W
|---------------------------------|-----------------------------|
|---------------------------------|-----------------------------|
|---------------------------------|-^7--------------------------|
|---------------------------------|-^7--------------------------|
|---------------------------------|-^8--------------------------|
|-----------------------------0---|-^0--------------------------|

  Bb                            Asus4
   E E S E S  E S S +S  S S S    E E S E S  E S S +S  S S S
|-----------------------------|-----------------------------|
|-----------------------------|-----------------------------|
|-----------------------------|-----------------------------|
|-----------------------------|-----------------------------|
|----8---7---10---8-(8)---7h8-|----8---7---10---8-(8)---7-8-|
|--8---8---8----8-------8-----|--7---7---7----7-------7-----|
|
|  W                             W
|-----------------------------|-----------------------------|
|-----------------------------|-----------------------------|
|-^7--------------------------|-^7--------------------------|
|-^x--------------------------|-^x--------------------------|
|-^8--------------------------|-^7--------------------------|
|-^8--------------------------|-^7--------------------------|

  Csus2
    E E  S E  S  E  S S +S   S S S
|----------------------------------|
|----------------------------------|
|----------------------------------|
|----------------------------------|
|-----8----7----10----8-(8)----8p7-|
|--10---10---10----10-------10-----|
|
|   W
|----------------------------------|
|----------------------------------|
|-^-7------------------------------|
|-^-x------------------------------|
|-^10------------------------------|
|-^10------------------------------|

  Dm
  W                         +W
|-------------------------|---------------------------||
|-------------------------|---------------------------||
|-------------------------|---------------------------||
|-------------------------|---------------------------||
|-8-----------------------|-(8)-----------------------||
|-------------------------|---------------------------||
|
|   Gtr III
| W                         +E  E +S  E.   E. S +E  E
|-------------------------|---------------------------||
|-------------------------|---------------------------||
|-7-----------------------|---------------------------||
|-7-----------------------|---------------------------||
|-8-8-(8)-7--/10--8-(8)-7-|-(7)-8-(8)-7--/10--8-(8)-7-||
|-0-----------------------|---------------------------||
  E E +S  E.   E. S +E  E

    D5      D5XC5
    Gtr I
    E E E E  S  S  S  S  S  S  S  S
||----------------------------------|
||o---------------------------------|
||----------------------------------|
||--0-0-0-0-12-10-10-10-10-10-10-10-|
||o-0-0-0-0-12-10-10-10-10-10-10-10-|
||--0-0-0-0-12-10-10-10-10-10-10-10-|

                                  1.
  D5      D5XC5                    A5          C5
  E E E E  S  S  S  S  S  S  S S   E E E S S S  S  S  S  S  S  S S
|--------------------------------|----------------------------------|
|--------------------------------|----------------------------------|
|--------------------------------|----------------------------------|
|-0-0-0-0-12-10-10-10-10-10-10---|-7-7-7-7-7-7-10-10-10-10-10-10----|
|-0-0-0-0-12-10-10-10-10-10-10---|-7-7-7-7-7-7-10-10-10-10-10-10----|
|-0-0-0-0-12-10-10-10-10-10-10-0-|-7-7-7-7-7-7-10-10-10-10-10-10-7--|

  A5          C5
  E E E S S S  S  S  S  S  S  S  S
|-----------------------------------||
|----------------------------------o||
|-----------------------------------||
|-7-7-7-7-7-7-10-10-10-10-10-10-10--||
|-7-7-7-7-7-7-10-10-10-10-10-10-10-o||
|-7-7-7-7-7-7-10-10-10-10-10-10-10--||

 2.
  A5          Bb5             F5          Eb5
  E E E S S S S S S S S S S   E E E S S S S S S S S S S
|---------------------------|---------------------------||
|---------------------------|---------------------------||
|---------------------------|---------------------------||
|-7-7-7-7-7-7-8-8-8-8-8-8---|-3-3-3-3-3-3-1-1-1-1-1-1-1-||
|-7-7-7-7-7-7-8-8-8-8-8-8---|-3-3-3-3-3-3-1-1-1-1-1-1-1-||
|-7-7-7-7-7-7-8-8-8-8-8-8-0-|-3-3-3-3-3-3-1-1-1-1-1-1-1-||

   1st Verse
    [N.C.] D    D   [N.C.]                 [N.C.] F5   F5  [N.C.]
    PM------|                          PM------|
    S S S S S E S  S  S  S  S S  E S   S S S S S E S  S  S  S  S S  E S
||-----------------------------------|----------------------------------|
||o----------------------------------|----------------------------------|
||------------7---10s12-12-12---10---|---------------10s12-12-12---10---|
||-----------------x-----x--x------0-|-----------3----x-----x--x------0-|
||o-----------5-0--8s10-10-10----8-0-|-----------3----8s10-10-10----8-0-|
||--0-0-0-0-0----------------------0-|-3-3-3-3-3-3-0------------------0-|

                                    1.,2.
  [N.C.] A5   A5  [N.C.]                 [N.C.] Bb5  Bb5 [N.C.] C5
  PM--------|                        PM--------|
  S S S S S E S  S  S  S  S S  E S   S S S S S E S S  S  S S  S  S S  S
|----------------------------------|-------------------------------------||
|----------------------------------|------------------------------------o||
|---------------10s12-12-12---10---|-------------------------------------||
|-----------7----x-----x--x--------|-----------8-------------------------||
|-----------7----8s10-10-10----8---|-----------8-0----------------------o||
|-7-7-7-7-7-7-7------------------7-|-8-8-8-8-8-8-0-8h10-10-8h10-10-8h10--||

                                   1st Chorus
  3.
  [N.C.] Bb5      [N.C.]                D5        D5XC5
  PM--------|
  S S S S S E S  S  S  S  S S E.    E E E S S  S  S  S  S  S  S  S  S
|--------------------------------||-----------------------------------|
|--------------------------------||-----------------------------------|
|---------------10s12-12-12------||-----------------------------------|
|-----------8----x-----x--x---8--||-0-0-0-0-0-12-10-10-10-10-10-10-10-|
|-----------8----8s10-10-10---8--||-0-0-0-0-0-12-10-10-10-10-10-10-10-|
|-8-8-8-8-8-8-0---------------8--||-0-0-0-0-0-12-10-10-10-10-10-10-10-|

  D5        D5XC5
  E E E S S  S  S  S  S  S  S  S S
|----------------------------------|
|----------------------------------|
|----------------------------------|
|-0-0-0-0-0-12-10-10-10-10-10-10---|
|-0-0-0-0-0-12-10-10-10-10-10-10---|
|-0-0-0-0-0-12-10-10-10-10-10-10-0-|

  A5          C5                    A5          C5
  E E E S S S  S  S  S  S  S  S S   E E E S S S  S  S  S  S  S  S  S
|---------------------------------|----------------------------------|
|---------------------------------|----------------------------------|
|---------------------------------|----------------------------------|
|-7-7-7-7-7-7-10-10-10-10-10-10---|-7-7-7-7-7-7-10-10-10-10-10-10-10-|
|-7-7-7-7-7-7-10-10-10-10-10-10---|-7-7-7-7-7-7-10-10-10-10-10-10-10-|
|-7-7-7-7-7-7-10-10-10-10-10-10-7-|-7-7-7-7-7-7-10-10-10-10-10-10-10-|

  [N.C.] D5     C5                     D5        D5XC5
   Q   Q  +S   S  S  S  S  S  S  S   E E E S S  S  S  S  S  S  S  S S
|----------------------------------|----------------------------------|
|----------------------------------|----------------------------------|
|----------------------------------|----------------------------------|
|-------------10-10-10-10-10-10-10-|-0-0-0-0-0-12-10-10-10-10-10-10---|
|------0--(0)-10-10-10-10-10-10-10-|-0-0-0-0-0-12-10-10-10-10-10-10---|
|-12\--0--(0)-10-10-10-10-10-10-10-|-0-0-0-0-0-12-10-10-10-10-10-10-0-|

  A5          C5                    A5          C5
  E E E S S S  S  S  S  S  S  S S   E E E S S S  S  S  S  S  S  S  S
|---------------------------------|----------------------------------||
|---------------------------------|----------------------------------||
|---------------------------------|----------------------------------||
|-7-7-7-7-7-7-10-10-10-10-10-10---|-7-7-7-7-7-7-10-10-10-10-10-10-10-||
|-7-7-7-7-7-7-10-10-10-10-10-10---|-7-7-7-7-7-7-10-10-10-10-10-10-10-||
|-7-7-7-7-7-7-10-10-10-10-10-10-0-|-7-7-7-7-7-7-10-10-10-10-10-10-10-||

   2nd Verse
    [N.C.] D     D   [N.C.]           F      [N.C.] F5   F5  [N.C.]
    PM-------|                           PM------|
    S S S  S S E S  S   S  S  S S  E S   S S S S S E S  S  S  S  S S  E S
||-------------------------------------|----------------------------------|
||o------------------------------------|----------------------------------|
||-------------7---10s=12-12-12---10---|---------------10s12-12-12---10---|
||------------------x------x--x------0-|-----------3----x-----x--x------0-|
||o------------5-0--8s=10-10-10----8-0-|-----------3----8s10-10-10----8-0-|
||--0-0-0--0-0-----------------------0-|-3-3-3-3-3-3-0------------------0-|
|
|   Gtr III
|   E   Q.         +H                    W
||-------------------------------------|----------------------------------|
||o-----3----------(3)-----------------|-6--------------------------------|
||-------------------------------------|----------------------------------|
||-------------------------------------|----------------------------------|
||o------------------------------------|----------------------------------|
||-------------------------------------|----------------------------------|

                                     1.
  [N.C.] A5    A5  [N.C.]                 [N.C.] Bb5  Bb5 [N.C.] C5
   PM--------|                        PM--------|
   S S S S S E S  S  S  S  S S  E S   S S S S S E S S  S  S S  S  S S  S
|-----------------------------------|-------------------------------------||
|-----------------------------------|------------------------------------o||
|----------------10s12-12-12---10---|-------------------------------------||
|------------7----x-----x--x--------|-----------8-------------------------||
|------------7----8s10-10-10----8---|-----------8-0----------------------o||
|--7-7-7-7-7-7-7------------------7-|-8-8-8-8-8-8-0-8h10-10-8h10-10-8h10--||
|
|  W                                  W
|-----------------------------------|-------------------------------------||
|-10--------------------------------|------------------------------------o||
|-----------------------------------|-------------------------------------||
|-----------------------------------|-------------------------------------||
|-----------------------------------|------------------------------------o||
|-----------------------------------|-------------------------------------||

                                    2nd Chorus
  2.
  [N.C.] Bb5       [N.C.]                D5         D5XC5
   PM--------|
   S S S S S E S  S  S  S  S S E.     E E E S S  S  S  S  S  S  S  S  S
|---------------------------------||------------------------------------|
|---------------------------------||------------------------------------|
|----------------10s12-12-12------||------------------------------------|
|------------8----x-----x--x---8--||--0-0-0-0-0-12-10-10-10-10-10-10-10-|
|------------8----8s10-10-10---8--||--0-0-0-0-0-12-10-10-10-10-10-10-10-|
|--8-8-8-8-8-8-0---------------8--||--0-0-0-0-0-12-10-10-10-10-10-10-10-|
|
|  H              H                   W
|---------------------------------||------------------------------------|
|-13-------------10---------------||-10---------------------------------|
|---------------------------------||------------------------------------|
|---------------------------------||------------------------------------|
|---------------------------------||------------------------------------|
|---------------------------------||------------------------------------|

  D5        D5XC5
  E E E S S  S  S  S  S  S  S  S S
|----------------------------------|
|----------------------------------|
|----------------------------------|
|-0-0-0-0-0-12-10-10-10-10-10-10---|
|-0-0-0-0-0-12-10-10-10-10-10-10---|
|-0-0-0-0-0-12-10-10-10-10-10-10-0-|

  A5          C5                    A5          C5
  E E E S S S  S  S  S  S  S  S S   E E E S S S  S  S  S  S  S  S  S
|---------------------------------|----------------------------------|
|---------------------------------|----------------------------------|
|---------------------------------|----------------------------------|
|-7-7-7-7-7-7-10-10-10-10-10-10---|-7-7-7-7-7-7-10-10-10-10-10-10-10-|
|-7-7-7-7-7-7-10-10-10-10-10-10---|-7-7-7-7-7-7-10-10-10-10-10-10-10-|
|-7-7-7-7-7-7-10-10-10-10-10-10-7-|-7-7-7-7-7-7-10-10-10-10-10-10-10-|

  [N.C.] D5     C5                     D5        D5XC5
   Q   Q  +S   S  S  S  S  S  S  S   E E E S S  S  S  S  S  S  S  S S
|----------------------------------|----------------------------------|
|----------------------------------|----------------------------------|
|----------------------------------|----------------------------------|
|-------------10-10-10-10-10-10-10-|-0-0-0-0-0-12-10-10-10-10-10-10---|
|------0--(0)-10-10-10-10-10-10-10-|-0-0-0-0-0-12-10-10-10-10-10-10---|
|-12\--0--(0)-10-10-10-10-10-10-10-|-0-0-0-0-0-12-10-10-10-10-10-10-0-|

  A5          C5                    A5          C5
  E E E S S S  S  S  S  S  S  S S   E E E S S S  S  S  S  S  S  S  S
|---------------------------------|----------------------------------||
|---------------------------------|----------------------------------||
|---------------------------------|----------------------------------||
|-7-7-7-7-7-7-10-10-10-10-10-10---|-7-7-7-7-7-7-10-10-10-10-10-10-10-||
|-7-7-7-7-7-7-10-10-10-10-10-10---|-7-7-7-7-7-7-10-10-10-10-10-10-10-||
|-7-7-7-7-7-7-10-10-10-10-10-10-0-|-7-7-7-7-7-7-10-10-10-10-10-10-10-||

 Bridge
  Dm          Bb5         F/A        Csus4
   W           W          W           W
|-----------|-----------|----------|-------|
|-----------|-----------|----------|-------|
|-10--------|-10--------|----------|-------|
|--7--------|--8--------|-7--------|-10----|
|--8--------|--8--------|-8--------|--8----|
|--0--------|--8--------|-7--------|-10----|

    [N.C.] Dm                       Bb5
   4/4
    E E S E S  E S S +S  S S S   E E S E S  E S S +S  S S S
||-----------------------------|----------------------------|
||o----------------------------|----------------------------|
||-----------------------------|----------------------------|
||-----------------------------|----------------------------|
||o---8---7---10---8-(8)---7h8-|---8---7---10---8-(8)---7h8-|
||--0---0---0----0-------0-----|-8---8---8----8-------8-----|

   F/A                          C
  E E S E S  E S S +S  S S S    E E  S E  S  E  S S +S   S S S
|----------------------------|----------------------------------||
|----------------------------|---------------------------------o||
|----------------------------|----------------------------------||
|----------------------------|----------------------------------||
|---8---7---10---8-(8)---7-8-|----8----7----10----8-(8)----8p7-o||
|-7---7---7----7-------7-----|-10---10---10----10-------10------||

  [N.C.] Dm                       Bb5
 4/4
  E E S E S  E S S +S  S S S   E E S E S  E S S +S  S S S
|----------------------------|----------------------------|
|----------------------------|----------------------------|
|----------------------------|----------------------------|
|----------------------------|----------------------------|
|---8---7---10---8-(8)---7h8-|---8---7---10---8-(8)---7h8-|
|-0---0---0----0-------0-----|-8---8---8----8-------8-----|

   F/A                          C
  E E S E S  E S S +S  S S S    E E  S E  S  E  S S +S   S S S
|----------------------------|----------------------------------||
|----------------------------|----------------------------------||
|----------------------------|----------------------------------||
|----------------------------|----------------------------------||
|---8---7---10---8-(8)---7-8-|----8----7----10----8-(8)----8p7--||
|-7---7---7----7-------7-----|-10---10---10----10-------10------||

             3rd Chorus
  D5          D5        D5XC5
  W           E E E S S  S  S  S  S  S  S  S  S
|----------||-----------------------------------|
|----------||-----------------------------------|
|----------||-----------------------------------|
|-0--------||-0-0-0-0-0-12-10-10-10-10-10-10-10-|
|-0--------||-0-0-0-0-0-12-10-10-10-10-10-10-10-|
|-0--------||-0-0-0-0-0-12-10-10-10-10-10-10-10-|

  D5        D5XC5
  E E E S S  S  S  S  S  S  S  S S
|----------------------------------|
|----------------------------------|
|----------------------------------|
|-0-0-0-0-0-12-10-10-10-10-10-10---|
|-0-0-0-0-0-12-10-10-10-10-10-10---|
|-0-0-0-0-0-12-10-10-10-10-10-10-0-|

  A5          C5                    A5          C5
  E E E S S S  S  S  S  S  S  S S   E E E S S S  S  S  S  S  S  S  S
|---------------------------------|----------------------------------|
|---------------------------------|----------------------------------|
|---------------------------------|----------------------------------|
|-7-7-7-7-7-7-10-10-10-10-10-10---|-7-7-7-7-7-7-10-10-10-10-10-10-10-|
|-7-7-7-7-7-7-10-10-10-10-10-10---|-7-7-7-7-7-7-10-10-10-10-10-10-10-|
|-7-7-7-7-7-7-10-10-10-10-10-10-7-|-7-7-7-7-7-7-10-10-10-10-10-10-10-|

  [N.C.] D5     C5                     D5        D5XC5
   Q   Q  +S   S  S  S  S  S  S  S   E E E S S  S  S  S  S  S  S  S S
|----------------------------------|----------------------------------|
|----------------------------------|----------------------------------|
|----------------------------------|----------------------------------|
|-------------10-10-10-10-10-10-10-|-0-0-0-0-0-12-10-10-10-10-10-10---|
|------0--(0)-10-10-10-10-10-10-10-|-0-0-0-0-0-12-10-10-10-10-10-10---|
|-12\--0--(0)-10-10-10-10-10-10-10-|-0-0-0-0-0-12-10-10-10-10-10-10-0-|

  A5          C5                    A5          C5
  E E E S S S  S  S  S  S  S  S S   E E E S S S  S  S  S  S  S  S  S
|---------------------------------|----------------------------------||
|---------------------------------|----------------------------------||
|---------------------------------|----------------------------------||
|-7-7-7-7-7-7-10-10-10-10-10-10---|-7-7-7-7-7-7-10-10-10-10-10-10-10-||
|-7-7-7-7-7-7-10-10-10-10-10-10---|-7-7-7-7-7-7-10-10-10-10-10-10-10-||
|-7-7-7-7-7-7-10-10-10-10-10-10-0-|-7-7-7-7-7-7-10-10-10-10-10-10-10-||

 Outro
  D5                      D5XC5
  Gtr III
   S  S  S  S  S  S  S  S  S  S  S  S  S  S  S  S
|-10-10-10-10-10-10-10-10-10-13-13-13-13-13-13-13-|
|--x--x--x--x--x--x--x--x--x--x--x--x--x--x--x--x-|
|--7--7--7--7--7--7--7--7--7-10-10-10-10-10-10-10-|
|-------------------------------------------------|
|-------------------------------------------------|
|-------------------------------------------------|
|
| Gtr I
|  S  S  S  S  S  S  S  S  S  S  S  S  S  S  S  S
|-------------------------------------------------|
|-------------------------------------------------|
|-------------------------------------------------|
|--0--0--0--0--0--0--0--0-12-10-10-10-10-10-10-10-|
|--0--0--0--0--0--0--0--0-12-10-10-10-10-10-10-10-|
|--0--0--0--0--0--0--0--0-12-10-10-10-10-10-10-10-|

  D5                      D5XC5
   S  S  S  S  S  S  S  S  S  S  S  S  S  S  S  S
|-10-10-10-10-10-10-10-10-10-13-13-13-13-13-13-13---|
|--x--x--x--x--x--x--x--x--x--x--x--x--x--x--x--x---|
|--7--7--7--7--7--7--7--7--7-10-10-10-10-10-10-10---|
|---------------------------------------------------|
|---------------------------------------------------|
|---------------------------------------------------|
|
|  S  S  S  S  S  S  S  S  S  S  S  S  S  S  S  S
|---------------------------------------------------|
|---------------------------------------------------|
|---------------------------------------------------|
|--0--0--0--0--0--0--0--0-12-10-10-10-10-10-10------|
|--0--0--0--0--0--0--0--0-12-10-10-10-10-10-10------|
|--0--0--0--0--0--0--0--0-12-10-10-10-10-10-10--0---|

  A5                      D5XC5
   S  S  S  S  S  S  S  S  S  S  S  S  S  S  S  S
|-13-13-12-12-12-12-12-12-12-13-13-13-13-13-13-13-|
|--x--x--x--x--x--x--x--x--x--x--x--x--x--x--x--x-|
|-11-11--8--8--8--8--8--8--8-10-10-10-10-10-10-10-|
|-------------------------------------------------|
|-------------------------------------------------|
|-------------------------------------------------|
|
|  S  S  S  S  S  S  S  S  S  S  S  S  S  S  S  S
|-------------------------------------------------|
|-------------------------------------------------|
|-------------------------------------------------|
|--7--7--7--7--7--7--7--7-12-10-10-10-10-10-10----|
|--7--7--7--7--7--7--7--7-12-10-10-10-10-10-10----|
|--7--7--7--7--7--7--7--7-12-10-10-10-10-10-10--7-|

  A5                C5
   S  S  S  S  S  S  S  S  S  S  S  S  S S S S
|-12-12-12-12-12-12-12-12-12--8--8--8--8-8-8-8---|
|--x--x--x-12-12--x--x--x--x--x--x--x--x-x-x-x---|
|--9--9--9--9--9--9--9--9--9--5--5--5--5-5-5-5---|
|------------------------------------------------|
|------------------------------------------------|
|------------------------------------------------|
|
|  E  E  E  S  S  S  S  S  S  S  S  S  S
|------------------------------------------------|
|------------------------------------------------|
|------------------------------------------------|
|--7--7--7--7--7--7-10-10-10-10-10-10-10---------|
|--7--7--7--7--7--7-10-10-10-10-10-10-10---------|
|--7--7--7--7--7--7-10-10-10-10-10-10-10---------|

  D5                                                 [N.C.] Dm
   >
   W           W            W            W           Wx3
|-10--------|------------|------------|------------|--------*|
|--x--------|------------|------------|------------|--------*|
|--7--------|------------|------------|------------|--------*|
|-----------|------------|------------|------------|--------*|
|-----------|------------|------------|------------|--------*|
|-----------|------------|------------|------------|--------*|
|
|                           >
|  W          +W           +W           +W           Wx3
|-----------|------------|------------|------------|--------*|
|-----------|------------|------------|------------|--------*|
|-----------|------------|------------|------------|--------*|
|--0--------|-(0)--------|-(0)--------|-(0)--------|--------*|
|--0--------|-(0)--------|-(0)--------|-(0)--------|--------*|
|--0--------|-(0)--------|-(0)--------|-(0)--------|--------*|

Duration Legend

W - whole; H - half; Q - quarter; E - 8th; S - 16th; T - 32nd; X - 64th; a - acciaccatura
+ - note tied to previous; . - note dotted; .. - note double dotted
Uncapitalized letters represent notes that are staccato (1/2 duration)
Irregular groupings are notated above the duration line
Duration letters will always appear directly above the note/fret number it represents the
duration for.  Duration letters with no fret number below them represent rests.  Multi-
bar rests are notated in the form Wxn, where n is the number of bars to rest for.  Low
melody durations appear below the staff

 h   - hammer-on
 p   - pull-off
 b   - bend
 pb  - pre-bend
 r   - bend release (if no number after the r, then release immediately)
 /\  - slide into or out of (from/to "nowhere")
 s   - legato slide
 S   - shift slide


   - natural harmonic
[n]  - artificial harmonic
n(n) - tapped harmonic
 ~   - vibrato
 tr  - trill
 T   - tap
 TP  - trem. picking
 PM  - palm muting
\n/  - tremolo bar dip; n = amount to dip
 \n  - tremolo bar down
 n/  - tremolo bar up
/n\  - tremolo bar inverted dip
 =   - hold bend; also acts as connecting device for hammers/pulls
 <>  - volume swell (louder/softer)
 x   - on rhythm slash represents muted slash
 o   - on rhythm slash represents single note slash

Misc Legend

 |  - bar
||  - double bar
||o - repeat start
o|| - repeat end
*|  - double bar (ending)
 :  - bar (freetime)
 $  - Segno
 &  - Coda
Tempo markers -
 
   = BPM(8/16=s8/s16), where s8 = swing 8ths, s16 = swing 16ths