Pearl Jam - Black Text Bass Tab

Learn the song with the online tablature player
intro

Verse

-7----7--7---------------4-4-4-5-5-6-6-----
---0-----------5---5-5---------------------------

--7----7--7------------------------------
-----0---------5-5h7p5--5---5--------

pre-chorus
----------5-----------5-|-----5---------------------
-------------------------|----------------------------
----3------3-3-3-3---|-3---3-3-3-3-3-(3)/----
-------------------------|-----------------------------

Chorus
-----------------|-----------------------12~~~----
-----------------|--12h14---12h14---------------
-7--------------|--------------------------------------
----0----0-----|-------------------------------------

-----7----------------|-----5-----------------------|------------
-----------------------|-----------------------------|--------------
-5-----5-5-5-53---|-3---3--3--3/7---7------|-7-7-7-5---
-----------------------|------------------------0--0|-------------