Pink Floyd - Comfortably Numb Text Guitar Tab

Learn the song with the online tablature player
Comfortably Numb
                        by Pink Floyd
                        from The WallBm                          A
        Hello, Is there any body in there?

                    G       D/F#  Em        Bm
Just nod if you can hear me,      is there anyone at home?

A
Come on, now, I hear your feeling  down,

      G            D/F#   Em            Bm
well, I can ease  your  pain,   get you on your feet again.

                        A                   G          D/F#   Em
relax, I need soem information, first,  just the basic facts,

         Bm
Can you show me where it hurts

D                           A
There is no pain you are receding,

D                                A        G/B
A distant ships smoke, on the horizon,

C                               G
You are only coming through in waves,

C                                               G
Your lips move, but I can't hear what your saying,

     D                       A
When I was a child, I had a fever,

  D                             A       G/B
my hands felt just like, two ballons,

C                                   G
Now I've got that feeling once again,

G                                 C
I can't explain, you would not understand,

                        G
This is not how I am,

A               G/B  C             G                D
I______________________  have become, comforatbly numb.

solo 1

---14vvvvvv-----12-14>15>14------------------------------------------------
------------------------------15>17vvvvvvvvvv>15--15-14--------------------

-------------------------------------------------------------14\12vvvvvv---

--14>12--14>(15)>14----------------------------------------------------------
-----------------------15>17---------15--14----------------------------------
---------------------------------------------14------------------/12vvvvvv---
-------------------------------------------------14\12--11--9--7-------------

---11--------------11\9---9\7vvvvv----9>7------7---9---11>12---
---------------------12vvvvvvvv--10\9vvvvvvv---10\9\7vvvvv----

                            v-- strike note

-11>(12)vvvvvvvv--9>(11)===(11)==>9>7----------------------
---------------------------------------7/9\7vvvvvvvvvvv\---

Bm                      A                         G   D/F#  Em
O.K., just a little pin prick, there'll be no more (scream),

           Bm
But you may feel a little sick.  Can you stand up?

                   A                              G             D/F#  Em
I do believe it's working, good. That'll keep you going throught the show,

Bm
C'mon it's time to go

D                            A
There is no pain you are receding,

D                               A       G/B
A distant ships smoke on the horizon,

C                                G
You are only coming through in waves,

    C                                         G
Your lips move, but I can't hear what your saying,

    D                              A
When I was a child, I caught a fleeting glimpse,

D                        A     G/B
Out of the corner of my eye,

C                              G
I turned to look, but it was gone,

                           C
I can not put my finger on it now,

                            G
The child is grown, the dream is gone,

A               G/B  C          G                 D
and I___________________, have become comfortably numb.

solo

--7--9--9>(11)vvvvvv--9>(11)>9>7---7--9--9--7-------7vvvvvvv---
--------10------10--12--12>(15)>12>10--12--------------------------------------
---/11------11---------------------------------------7--9--9>(10)>9>7----------

----10>7-------7-----------------------------------------------------------
--------------------------9vvvvvvvvvv--------7---7--9-----9>7---9vvvvvv----
-----------------------------------------/9--------------------------------

--9--9>(10)----7-------7---------------------------
-------------------10-----10>(12)vvv----10>7-------

--7--7---10>7---------------------------------------------------
--------------9>(11)>9>7---9-7----------------------------------
------------------------7---10>7--------------------------------------------
--7-7-7vvvvvvv---9>(11)----------9>(11)>9>7---9-7---------------------------
--------------------------------------------9-----9>7-----------------------
------------------------------------------------------9\7-5-7>5---5--7-7/9--
--------------------------7---10--------7--------------7---10>7-------------
-------------7---7-9>(11)--------9>(11)---7--9--9>(11)----------9>(11)>9>7--
--7-7-7--9>7---9------------------------------------------------------------
--9-----9-7----------------7--9vvvvvvv----7-7-7--"9"vvvvvvvvvv---7-7-7--9vvv-
------------9-8-7-5---5>0----------------------------------------------------

--7---------------------------------------------10>7--10>(12)====>10--
--7----9>(11)>9>7-----7--9--9>(11)vvvvvvvv----------------------------
-----7-------------9--------------------------------------------------

--------7---10>7--------------------------------------------------
-9>(11)----------9>(11)>9>7-9>7---7---------------------------7---
--------------------------------9---9>7-9>7---7------------9--7---
----------7-----7>(8)>7--------------------------7-----------------7---
--------7-7-----7>(8)>7-----------------7>9>7----7-----------------7---
--9-7-9---7-----7>(8)>7-7vvvvvv-7>9------------9---9>7-----7-9>7>9-----

------------------------------------7-----17-17-17>(19)vvv--17-19-21-21>(22)vv-
--------7---7---7--7------7---7--7--7------------------------------------------
--9>7---7---7---7--7----7-7---7--7--7------------------------------------------
------9-----7-----------------------7------------------------------------------

--21>(22)vvv-21-21>(22)>21--21>(22)-21>(22)-21>(22)>21--19>21>19-19-19\---

--17-17-17--17>(19)>17>15----17-17-17vvvvvv---15--17-17>(18)>17>15vvv---------
----------------------------10---------10----12-12>(13)-10-12-------12--
--------------------10>(12)----10>(12)----10------------------12-12-----
--14-16vvv--------------------------------------------------------------
-12>(15)>12--12-10---------------------------------------7---
-------------------9>(11)>9>0--9>7---7-9>7---------------7---
----------9>(11)-9--7------------------------------
----------------------9-9-9-7----7-7>9-9>7-9vvvvv--

---------------------------------------------------** NOTE**

        When changing from an A to a G/B to a C in the chorus, do it like this;

     A      G/B   C
-----0-------3----0---
-----2-------3----1---
-----2-------0----0---
-----2-------0----2---
-----0-------2----3---

listen to the CD to get the exact rythem for this part, it not hard.legend

---7>(9)------                                       bend
---7>(9)>7----                                    bend & release
-----"9"------                                        harmonic
------7/8-----                                  slide