Police - Walking On The Moon Text Bass Tab

Learn the song with the online tablature player
The Police:
 Walking On The Moon.
 Bass TAB
 by  Daz

VERSE
G|----------------------------||
D|-------------3-2------------||
A|--3-3-5r---------3r---------||
E|----------------------------|| x14

(Verse played 4 times then Sting starts singing.)  "Giant steps are what you
take...."

CHORUS INTRO
G|-------------------------||
D|------------------5-5-5--||
A|--3-3-5r-----5-----------||
E|-------------------------|| x1

  (this phrase is played just before Sting starts singing "Some may say...." and goes
straight into the chorus )

CHORUS
G|----------------------------------------------------------||
D|----------------------------------------------------------||
A|--1-1-1--1----------------3-3-3--3-------------------0----||
E|--------------1-1-1--1-----------------3-3-3--3-----------|| x3

(The open A note at the end of the Chorus is a bridge note back to the B flat
begining again.Play 3 times then go to chorus outro)

     CHORUS OUTRO
G|-----------------------------------------------------||
D|-----------------------------------------------------||
A|--1-1-1--1--------------------3-3-3---33---3-3-5r----||
E|----------------1-1-1--1-----------------------------|| x1

(These sets of four notes are actually triplets with a very tiny space between them
and the fourth note. The outro then joins back to the Verse again, before it does
though there are two very quick C notes. listen to the song to hear it. Or even
better have it play while reading the tab.)

intro/verse: ...  x14

chorus

verse
........  x6

chorus

verse
........  x16 to fade