Queen - Killer Queen Text Guitar Tab

Learn the song with the online tablature player
Another great solo from Brian May of Queen.

As ever any comments, good or bad, are most welcome.

TAB Legend:

h - Hammer-on
p - Pull-off
b - Bend note
r - Return from bend
s - Slide
~ - Vibrato

e|--------------------------|----------------------|-----------------------|
B|-------10-10~-------------|-10-11----10----------|-----------------------|
G|-12b13--------12-10p9-----|-------12----10p9-----|-10b12r10-12-----------|
D|----------------------12~-|------------------12~-|-------------13p12-10~-|
A|--------------------------|----------------------|-----------------------|
E|--------------------------|----------------------|-----------------------|

e|-----------------------|--------------------------------------------|
B|-----------------------|------6b8-6b8------6b8-6b8------------------|
G|-12----10--------------|--------------------------------12-13-14s17-|
D|----13----12-13p12-10\-|-3-3~---------3-3~---------3-3~-------------|
A|-----------------------|--------------------------------------------|
E|-----------------------|--------------------------------------------|

e|--------------------------------------|----------------------|
B|-------------------18-18-15h16p15-----|----------------------|
G|-17-17-15-17p15-------------------17~-|----17-17-15-17p15----|
D|----------------17--------------------|-17----------------17-|
A|--------------------------------------|----------------------|
E|--------------------------------------|----------------------|

e|-----------------------------------------|-------------15--------------------------|
B|-15-15----------15----16p15-18p16-18b20--|-20r18-16-18----16-18b20r18-16----16-----|
G|-------16-17p16----17--------------------|-------------------------------16--------|
D|-----------------------------------------|-----------------------------------------|
A|-----------------------------------------|-----------------------------------------|
E|-----------------------------------------|-----------------------------------------|

e|------------------------------------|-------18---------------|
B|----------------16-18b20-18b20-r18~-|-18s20----20-20-20b21~~-|
G|-15b16r15-15-17---------------------|------------------------|
D|------------------------------------|------------------------|
A|------------------------------------|------------------------|
E|------------------------------------|------------------------|