Ratt - You're In Love Text Guitar Tab

Learn the song with the online tablature player
INTRO
e|---------------------------|--------------------------|
B|---------------------------|--------------------------|
G|--7--------7---------------|-9--------5---------------|
D|--7--------7---------------|-9--------5---------------|
A|---------------------------|--------------------------|
E|-----0--0------0--0--0--0--|----0--0-------0--0--0--0-|

e|---------------------------|
B|---------------------------|
G|--7--------7---------------|
D|--7--------7---------------|
A|---------------------------|
E|-----0--0------0--0--0--0--|

Well Theres the Intro. I Might tab the whole song depeding on how many people like this
because I don't want to tab a whole song then have no one look at it.