Roy Orbison - Oh, Pretty Woman Text Guitar Tab

Learn the song with the online tablature player
e|---------------------------------------------------------------------------|
B|---------------------------------------------------------------------------|
G|---------------------------------------------------------------------------|
D|---------0------------0----------------------------------------------------|
A|-------2------------2------------------------------------------------------|
E|-0-0-4--------0-0-4--------------------------------------------------------|

e|---------------------------------------------------------------------------|
B|---------------------------------------------------------------------------|
G|---------------------------------------------------------------------------|
D|---------0-4-2-0-----------0-4-2-0-----------0-4-2-0-----------0-4-2-0-----|
A|-------2-----------------2-----------------2-----------------2-------------|
E|-0-0-4-------------0-0-4-------------0-0-4-------------0-0-4---------------|

A                   F#m
Pretty Woman     Walking Down The Street
      A                F#m
Pretty Woman     The Kind I Like To Meet
      D            E
Pretty Woman    I don't believe you  You're not the truth

No One can Look as good as you

e|---------------------------------------------------------------------------|
B|---------------------------------------------------------------------------|
G|---------------------------------------------------------------------------|
D|---------0-4-2-0-----------0-4-2-0-----------0-4-2-0-----------0-4-2-0-----|
A|-------2-----------------2-----------------2-----------------2-------------|
E|-0-0-4-------------0-0-4-------------0-0-4-------------0-0-4---------------|
                (mercy)

      A                F#m
Pretty Woman     Wont you pardon me
      A                F#m
Pretty Woman     I Couldn't help but see
      D                  E
Pretty Woman     You look so lovely as can be

Are you lonely just like me

e|---------------------------------------------------------------------------|
B|---------------------------------------------------------------------------|
G|---------------------------------------------------------------------------|
D|---------0-4-2-0-----------0-4-2-0-----------0-4-2-0-----------------------|
A|-------2-----------------2-----------------2-------------------------------|
E|-0-0-4-------------0-0-4-------------0-0-4---------------------------------|
                (growl)

Dm         G
Pretty Woman stop awhile
C          Am
Pretty Woman Talk Awhile
Dm         G7              C
Pretty Woman Give Your smile to me
Dm         G
Pretty woman Yeah Yeah Yeah
C          Am
Pretty Woman Look My Way
Dm         G7               C      A
Pretty Women Say you'll stay with me
      F#m                Dm             E     A
Cause I need you            I'll treat you right
         F#m             Dm
Come to me baby             Be mine tonight...

e|---------------------------------------------------------------------------|
B|---------------------------------------------------------------------------|
G|---------------------------------------------------------------------------|
D|---------0-4-2-0-----------0-4-2-0-----------0-4-2-0-----------0-4-2-0-----|
A|-------2-----------------2-----------------2-----------------2-------------|
E|-0-0-4-------------0-0-4-------------0-0-4-------------0-0-4---------------|
  (tonight................................)

      A            F#m
Pretty Woman     Don't walk on by
      A            F#m
Pretty Woman     Don't Make me cry
      D            E
Pretty Woman     Don't walk walk away hey  okay

If thats the way it must be okay

I guess I'll go on home   Its late

There'll be tomorrow night but wait

what do i see

e|---------------------------------------------------------------------------|
B|---------------------------------------------------------------------------|
G|---------------------------------------------------------------------------|
D|---------0------------0----------------------------------------------------|
A|-------2------------2------------------------------------------------------|
E|-0-0-4--------0-0-4--------------------------------------------------------|

e|---------------------------------------------------------------------------|
B|---------------------------------------------------------------------------|
G|---------------------------------------------------------------------------|
D|---------0-4-2-0-----------0-4-2-0-----------0-4-2-0-----------0-4-2-0-----|
A|-------2-----------------2-----------------2-----------------2-------------|
E|-0-0-4-------------0-0-4-------------0-0-4-------------0-0-4---------------|
(Is she walking back to me                            yeah)

e|---------------------------------------------------------------------------|
B|---------------------------------------------------------------------------|
G|---------------------------------------------------------------------------|
D|---------0-4-2-0-----------0-4-2-0-----------0-4-2-0-----------------------|
A|-------2-----------------2-----------------2-------------------------------|
E|-0-0-4-------------0-0-4-------------0-0-4---------------------------------|
(shes walking back to me)

                                                                   A  A
e|---------------------------------------------------------------------------|
B|-------------------------------------------------2--2----------------------|
G|-------------------------------------------------2--2----------------------|
D|---------0-4-2-0-----------0-4-2-0---------------2--2----------------------|
A|-------2-----------------2-------------------------------------------------|
E|-0-0-4-------------0-0-4---------------------------------------------------|
( Oh              oh                        pretty woman)

| /   slide up
| \   slide down
| h   hammer-on
| p   pull-off
| ~   vibrato
| +   harmonic
| x   Mute note
| b   Bend
| pb  Pre-bend
| br  Bend release
| pbr Pre-bend release
| brb Bend release bend