Rush - The Temples Of Syrinx Text Bass Tab

Learn the song with the online tablature player
     2 mm     h+Q e     E s e e E s e e   E s e
||---rest---|-r-----||------------------|---------|---
||----------|-e-----||*-----------------|---------|---
||----------|-s-----||*---------------3-|---------|---
||----------|-t---0-||--5-5-5-0-5-5-5---|-3-3-3---|---

e e q e   E s e e E s e e   h+Q e  3x E s e e E s e e   E s e e
--------|-----------------|--------||-----------------|-----------
--------|-----------------|-------*||-----------------|-----------
3---5---|---------------3-|-------*||---------------3-|-------3---
--3---0-|-5-5-5-0-5-5-5---|-3---0--||-5-5-5-0-5-5-5---|-3-3-3-----

e q e   E s e e E s e e   e e e e e e e e+   e e e e e e e e+
------|-----------------|-----------------||-----------------|----
------|-----------------|-----------------||-----------------|----
--5---|---------------3-|---------0-----2-||---1-2-1-2-------|----
3---0-|-5-5-5-0-5-5-5---|-3-0-2-3---3-0---||-----------0-2-3-|----

e e e e e e e e+  e e e e e e e e+  e e e e e e e e+  e e e e e
----------------|-----------------|-----------------|-------------
----------------|-----------------|-----------------|-------------
----------------|-----------------|---------0-----2-|---1-2-1-0---
--2-3-2-3-2-3-5-|---4-5-4-5-4-5-7-|--