Rush - Totem Text Guitar Tab

Learn the song with the online tablature player
+----------------------------------------------------+
|                       NOTE                         |
|           There are 4 guitars in this song.        |
|             Tunings are noted below                |
+----------------------------------------------------+

+----------------------------------------------------+
|                      TOTEM                         |
|                  Made by: Rush                     |
+----------------------------------------------------+

+----------------------------------------------------+
|       There are chords in this song, however,      |
|   I have taken the time to place them in pure tab. |
+----------------------------------------------------+

+----------------------------------------------------+
|         Take note that I worked off this from a    |
| totem power tab. If you see a chord on top of a tab|
| table, then I don't know how it's used and I       |
| slapped it in there. I even listened to the song,  |
| and all I can hear during the solo at the beginning|
| is Gtr IV. So don't get mad at me for that.        |
|             Just assume it's Gtr I.                |
+----------------------------------------------------+

+----------------------------------------------------+
|     Since the chords and pure tab now, if I only   |
| mention a chord once, yet it has the movement      |
| symbols at the top, keep playing that string till  |
| the next chord is noted. You will see this at the  |
| verse. Look at how the intro is played out, and how|
| it's played later, note the symbols above the      |
| table. Even though after the verse, I am no longer |
| repeating chords in a table, it doesn't mean you   |
| hit it only once.                                  |
+----------------------------------------------------+

Gtr I : C G C F A D  -- Acoustic
Gtr II : D G C F A D -- Electric 1
Gtr III : D G C F A D -- Electric 2
Gtr IV : D G C F A D -- Electric 3 'natural harmonics'

All the notes sound one whole step lower than transcibed, key of Bb.
The chords sound one whole step lower than noted.

Intro

Gtr 1
  E S S+S S S S E S S E S S   E S S+S S S S E S S E S S
  | | | | | | | | | | | | |   | | | | | | | | | | | | |
  / / / / / / / / X X / X X   / / / / / / / / X X / X X
|-7-7-7-7-7-7-7-8-----10----|-7-7-7-7-7-7-7-8-----5----|
|-8-8-8-8-8-8-8-8-----8-----|-8-8-8-8-8-8-8-8-----8----|
|-7-7-7-7-7-7-7-7-----7-----|-7-7-7-7-7-7-7-7-----7----|
|-x-x-x-x-x-x-x-x-----x-----|-x-x-x-x-x-x-x-x-----x----|
|-x-x-x-x-x-x-x-x-----x-----|-x-x-x-x-x-x-x-x-----x----|
|-x-x-x-x-x-x-x-x-----x-----|-x-x-x-x-x-x-x-x-----x----|

Gtr 2
(silent)

-

  E S S+S S S S E S S E S S   E S S+S S S S E S S E S S
  | | | | | | | | | | | | |   | | | | | | | | | | | | |
  / / / / / / / / X X / X X   / / / / / / / / X X / X X
|-7-7-7-7-7-7-7-8-----5-----|-7-7-7-7-7-7-7-8-----5----|
|-8-8-8-8-8-8-8-8-----8-----|-8-8-8-8-8-8-8-8-----8----|
|-7-7-7-7-7-7-7-7-----7-----|-7-7-7-7-7-7-7-7-----7----|
|-x-x-x-x-x-x-x-x-----x-----|-x-x-x-x-x-x-x-x-----x----|
|-x-x-x-x-x-x-x-x-----x-----|-x-x-x-x-x-x-x-x-----x----|
|-x-x-x-x-x-x-x-x-----x-----|-x-x-x-x-x-x-x-x-----x----|

Gtr 2
(silent)

-

Verse

  E S S +S  S S S E S S E S S    E S S +S  S S S E S S E S S
  | | |  |  | | | | | | | | |    | | |  |  | | | | | | | | |
  / / /  /  / / / / / / / / /    / / /  /  / / / / / / / / /
|-0---------------x-----0------|-0---------------x-----0------|
|-5---------------6-----5------|-5---------------6-----5------|
|-5---------------5-----5------|-5---------------5-----5------|
|-5---------------5-----5------|-5---------------5-----5------|
|-3---------------3-----3------|-0---------------3-----0------|
|-x---------------x-----x------|-x---------------x-----x------|

Gtr 2
   E S S +S  S S S Q     Q        E S S +S  S S S Q     Q
|------------------------------|------------------------------|
|o-5-5-5-(5)-5-5-5-6-----5-----|--5-5-5-(5)-5-5-5-6-----5-----|
|--5-5-5-(5)-5-5-5-5-----5-----|--5-5-5-(5)-5-5-5-5-----5-----|
|--5-5-5-(5)-5-5-5-5-----5-----|--5-5-5-(5)-5-5-5-5-----5-----|
|o-----------------------------|------------------------------|
|------------------------------|------------------------------|

  E S S +S  S S S E S S E S S   E S S +S  S S S E S S E S S
  | | |  |  | | | | | | | | |   | | |  |  | | | | | | | | |
  / / /  /  / / / / / / / / /   / / /  /  / / / / / / / / /
|-0---------------x-----x-----|-0---------------x-----0-----|
|-5---------------6-----5-----|-5---------------6-----5-----|
|-5---------------5-----5-----|-5---------------5-----5-----|
|-5---------------5-----5-----|-5---------------5-----5-----|
|-x---------------3-----x-----|-x---------------3-----x-----|
|-5---------------x-----5-----|-3---------------x-----3-----|

Gtr 2
  E S S +S  S S S Q     Q        E S S +S  S S S Q     Q
|-----------------------------|-----------------------------|
|-5-5-5-(5)-5-5-5-6-----5-----|--5-5-5-(5)-5-5-5-6-----5----|
|-5-5-5-(5)-5-5-5-5-----5-----|--5-5-5-(5)-5-5-5-5-----5----|
|-5-5-5-(5)-5-5-5-5-----5-----|--5-5-5-(5)-5-5-5-5-----5----|
|-----------------------------|-----------------------------|
|-----------------------------|-----------------------------|

  E S S+S S S S E S S E S S   E S S+S S S S E S S E S S
  | | | | | | | | | | | | |   | | | | | | | | | | | | |
  / / / / / / / / X X / X X   / / / / / / / / X X / X X
|-7-7-7-7-7-7-7-8-----5-----|-7-7-7-7-7-7-7-8-----5----|
|-8-8-8-8-8-8-8-8-----8-----|-8-8-8-8-8-8-8-8-----8----|
|-7-7-7-7-7-7-7-7-----7-----|-7-7-7-7-7-7-7-7-----7----|
|-x-x-x-x-x-x-x-x-----x-----|-x-x-x-x-x-x-x-x-----x----|
|-x-x-x-x-x-x-x-x-----x-----|-x-x-x-x-x-x-x-x-----x----|
|-x-x-x-x-x-x-x-x-----x-----|-x-x-x-x-x-x-x-x-----x----|

Gtr 2
(silent)

  E S S+S S S S E S S E S S   E S S+S S S S E S S E S S
  | | | | | | | | | | | | |   | | | | | | | | | | | | |
  / / / / / / / / X X / X X   / / / / / / / / X X / X X
|-7-7-7-7-7-7-7-8-----5-----|-7-7-7-7-7-7-7-8-----5----|
|-8-8-8-8-8-8-8-8-----8-----|-8-8-8-8-8-8-8-8-----8----|
|-7-7-7-7-7-7-7-7-----7-----|-7-7-7-7-7-7-7-7-----7----|
|-x-x-x-x-x-x-x-x-----x-----|-x-x-x-x-x-x-x-x-----x----|
|-x-x-x-x-x-x-x-x-----x-----|-x-x-x-x-x-x-x-x-----x----|
|-x-x-x-x-x-x-x-x-----x-----|-x-x-x-x-x-x-x-x-----x----|

Gtr 2
(silent)

-

  E S S +S S S S E S S E S S    E  S S +S S S S E   S S E S S
  | | |  | | | | | | | | | |    |  | |  | | | | |   | | | | |
  / / /  / / / / / / / / / /    /  / /  / / / / /   / / / / /
|-2--------------3-----0------|-2---------------3-------3----|
|-3--------------5-----2------|-3---------------3-------3----|
|-2--------------0-----2------|-2---------------0-------0----|
|-0--------------0-----0------|-0---------------2-------2----|
|-0--------------x-----x------|-x---------------x-------3----|
|-0--------------x-----x------|-x---------------x-------x----|
|
|Gtr II
| W                            +H               S S S S Q
|-2--------------------------|-(2)--------------3-3-3-3-3-----|
|-3--------------------------|-(3)--------------3-3-3-3-3-----|
|-2--------------------------|-(2)--------------0-0-0-0-0-----|
|-0--------------------------|-(0)----------------------------|
|----------------------------|--------------------------------|
|----------------------------|--------------------------------|
|
|Gtr III
| W                             H               S S S S Q
|----------------------------|------------------3-3-3-3-3-----|
|----------------------------|------------------3-3-3-3-3-----|
|----------------------------|------------------0-0-0-0-0-----|
|----------------------------|--------------------------------|
|----------------------------|--------------------------------|
|----------------------------|--------------------------------|

  E S S +S S S S E S S E S S      E  S S +S S S S  S  S  S  S  E  S S
  | | |  | | | | | | | | | |      |  | |  | | | |  |  |  |  |  |  | |
  / / /  / / / / / / / / / /      /  / /  / / x x  /  /  /  /  /  x x
|-2--------------3-----0-------|--2----------------8------------------|
|-3--------------5-----2-------|--3----------------8------------------|
|-2--------------0-----2-------|--2----------------7------------------|
|-0--------------0-----0-------|--0----------------0------------------|
|-x--------------x-----x-------|--x----------------x------------------|
|-x--------------x-----x-------|--x----------------x------------------|
|
|
| W
|-2----------------------------|-(2)----------------------------------|
|-3----------------------------|-(3)----------------------------------|
|-2----------------------------|-(2)----------------------------------|
|-0----------------------------|-(0)----------------------------------|
|------------------------------|--------------------------------------|
|------------------------------|--------------------------------------|
|
|
| W                               H                 S  S  S  S  Q
|------------------------------|--------------------------------------|
|------------------------------|-------------------13-13-13-13-13\----|
|------------------------------|-------------------12-12-12-12-12\----|
|------------------------------|-------------------12-12-12-12-12\----|
|------------------------------|--------------------------------------|
|------------------------------|--------------------------------------|

Pre-Chorus

  E S S S S S S E S S  E S S   E S S S S S S E S S E S S
  | | | | | | | | | |  | | |   | | | | | | | | | | | | |
  / / / / / / / / / /  / / /   / / / / / / / / / / / / /
|-2-------------3------0-----|-2-------------3-------------|
|-3-------------5------2-----|-3-------------3-------------|
|-2-------------0------2-----|-2-------------0-------------|
|-0-------------0------0-----|-0-------------2-------------|
|-x-------------x------x-----|-x-------------3-------------|
|-x-------------x------x-----|-x-------------x-------------|
|
|Gtr II
|
| E S S S S S S E S S  E S S   E S S S S S S E S S E S S
|----------------------------|---------------3-3-3-3-3-3---|
|-3-3-3-3-3-3-3-3-3-3--3-3-3-|-3-3-3-3-3-3-3-3-3-3-3-3-3---|
|-2-2-2-2-2-2-2-2-2-2--2-2-2-|-2-2-2-2-2-2-2-0-0-0-0-0-0---|
|-0-0-0-0-0-0-0-0-0-0--0-0-0-|-0-0-0-0-0-0-0-2-2-2-2-2-2---|
|----------------------------|-----------------------------|
|----------------------------|-----------------------------|
|
|Gtr III
|
| E S S S S S S E S S  E S S   E S S S S S S E S S E S S
|----------------------------|-----------------------------|
|-7-7-7-7-7-7-7-8-x-x-10-x-x-|-7-7-7-7-7-7-7-8-x-x-5-x-x---|
|-7-7-7-7-7-7-7-9-x-x-11-x-x-|-7-7-7-7-7-7-7-9-x-x-5-x-x---|
|----------------------------|-----------------------------|
|----------------------------|-----------------------------|
|----------------------------|-----------------------------|

  D             Dsus4aA/D      D             D7sus4
  E S S S S S S E S S  E S S   E S S S S E     H
  | | | | | | | | | |  | | |   | | | | | |     |
  / / / / / / / / / /  / / /   / / / / / /     /
|-2-------------3------0-----|-2---------------8-----|
|-3-------------5------2-----|-3---------------8-----|
|-2-------------0------2-----|-2---------------7-----|
|-0-------------0------0-----|-0---------------0-----|
|-x-------------x------x-----|-x---------------x-----|
|-x-------------x------x-----|-x---------------x-----|
|
|Gtr II
|
| E S S S S S S E S S  E S S   E S S S S S S   H
|----------------------------|-----------------------|
|-3-3-3-3-3-3-3-3-3-3--3-3-3-|-3-3-3-3-3-3-3---3-----|
|-2-2-2-2-2-2-2-2-2-2--2-2-2-|-2-2-2-2-2-2-2---0-----|
|-0-0-0-0-0-0-0-0-0-0--0-0-0-|-0-0-0-0-0-0-0---x-----|
|----------------------------|-----------------3-----|
|----------------------------|-----------------------|
|
|Gtr III
|
| E S S S S S S E S S  E S S   E S S S S S S   H
|----------------------------|-----------------------|
|-7-7-7-7-7-7-7-8-x-x-10-x-x-|-7-7-7-7-7-7-7S=13-----|
|-7-7-7-7-7-7-7-9-x-x-11-x-x-|-7-7-7-7-7-7-7S=12-----|
|----------------------------|-----------------------|
|----------------------------|-----------------------|
|----------------------------|-----------------------|
|
|Gtr IV
|
| W                            H               H
|----------------------------|-----------------------|
|----------------------------|-----------------------|
|----------------------------|-------------------|
|----------------------------|-----------------------|
|----------------------------|-----------------------|
|----------------------------|-----------------------|

Chorus

  $
  A7sus4
    W
    E  S  S  S  S  S S   S   S S S  S  S S S
|--------------------------------------------|
|--------15-------15--------15-----15--------| Gtr II
|---0--0--0--0--0--0-0---0---0-0-0--0--0-0-0-|
|--------------------------------------------|
|--------------------------------------------|
|--------------------------------------------|
|
|Gtr III
|
    B                    B
|--------------------------------------------|
|-(13)-----------------(13)------------------|
|-(12)-----------------(12)------------------|
|--------------------------------------------|
|--------------------------------------------|
|--------------------------------------------|
|
|Gtr IV
|
|   Q        Q           Q          Q
|--------------------------------------------|
|--------------------------------------------|
|--------------------------------------------|
|-----------------------------------------|
|----------------------------------|
|--------------------------------------------|

  Csus2add6
   W
   S   S S  S  S  S  S  S  S   S S  S  S   S  S  S
|--------------------------------------------------|
|-13--15---15-------15-15-----15---13-15--15-15-15-|
|--0-----0--0--0--0--0--0--0---0-0--0--0---0--0--0-|
|--------------------------------------------------|
|--------------------------------------------------|
|--------------------------------------------------|
|
|
|
|  W
|--------------------------------------------------|
|--------------------------------------------------|
|--------------------------------------------------|
|--------------------------------------------------|
|--------------------------------------------------|
|--------------------------------------------------|
|
|
|
|  Q           Q           Q           Q
|--------------------------------------------------|
|--------------------------------------------------|
|--------------------------------------------------|
|--------------------------------------------|
|--------------------------------------------|
|--------------------------------------------------|

  Gsus2add6
   S   S S  S  S  S  S  S  S   S S  S  S   S  S  S
|--------------------------------------------------|
|-13--15---13-------15-15-----15---13-15--15-15-13-|
|--0-----0--0--0--0--0--0--0---0-0--0--0---0--0--0-|
|--------------------------------------------------|
|--------------------------------------------------|
|--------------------------------------------------|
|
|
| Gtr IV
|  Q           Q           Q           Q
|--------------------------------------------------|
|--------------------------------------------------|
|-----------------------------------------------|
|-----------------------------------------------|
|--------------------------------------------|
|--------------------------------------------------|

  Dsus4add9
   E  S  S  S  S  S  S  S   S S S  S   S S S
|--------------------------------------------|
|-------15-------15-15-13--15---------15-----|
|--0--0--0--0--0--0--0--0---0-0-0--0---0-0-0-|
|--------------------------------------------|
|--------------------------------------------|
|--------------------------------------------|
|
|
|
|  Q        Q           Q          Q
|--------------------------------------------|
|--------------------------------------------|
|--------------------------------------------|
|--------------------------------------|
|--------------------------------------|
|--------------------------------------------|

  A7sus4
    S   S S  S  S  S  S  S  S   S S  S  S   S  S  S
|---------------------------------------------------|
|--13--15---15-------15-15-----15---13-15--15-15-13-|
|---0-----0--0--0--0--0--0--0---0-0--0--0---0--0--0-|
|---------------------------------------------------|
|---------------------------------------------------|
|---------------------------------------------------|
|
|
|
|   Q           Q           Q           Q
|---------------------------------------------------|
|---------------------------------------------------|
|---------------------------------------------------|
|------------------------------------------------|
|-----------------------------------------|
|---------------------------------------------------|

  Csus2add6
   S   S  S  S  S  S  S  S  S   S S S  S   S S S
|------------------------------------------------|
|-13--15-15-15-------15-15-15--15-----15--15-----|
|--0------0--0--0--0--0--0--0---0-0-0--0---0-0-0-|
|------------------------------------------------|
|------------------------------------------------|
|------------------------------------------------|
|
|
|
|  Q            Q           Q          Q
|------------------------------------------------|
|------------------------------------------------|
|------------------------------------------------|
|------------------------------------------|
|------------------------------------------|
|------------------------------------------------|

  Gsus2add6
   S   S  S  S  S  S  S  S  S   S  S  S  S   S  S  S
|----------------------------------------------------|
|-13--15-15-15-------15-15-15--15-13-13-15--15-15-13-|
|--0------0--0--0--0--0--0--0---0--0--0--0---0--0--0-|
|----------------------------------------------------|
|----------------------------------------------------|
|----------------------------------------------------|
|
|
|
|  Q            Q           Q            Q
|----------------------------------------------------|
|----------------------------------------------------|
|-------------------------------------------------|
|-------------------------------------------------|
|----------------------------------------------|
|----------------------------------------------------|

                                            To Coda
  Dsus4add9
   S   S  S  S  S   S  S  S  S   S  S  S  S   S  S  S
|-----------------------------------------------------|
|-13--15-15-15-13--15-15-15-15--15-15-15-15--15-15-15-|
|--0---0--0--0--0---0--0--0--0---0--0--0--0---0--0--0-|
|-----------------------------------------------------|
|-----------------------------------------------------|
|-----------------------------------------------------|
|
|
|
|  Q            Q            Q            Q
|-----------------------------------------------------|
|-----------------------------------------------------|
|-----------------------------------------------------|
|-----------------------------------------------|
|-----------------------------------------------|
|-----------------------------------------------------|

(ignore 'to coda' during second chorus, and keep going:)

  Am11                              D11
    E   S  S  E   E  E   E  E   E    S   S  S  S  E   E  E   E  S   S  S  S
|-----------------------12--------|-15--15-15-15-12-----15--15-15--15-15-15-|
|--13--15-15-15--13-15-----15--13-|------------------13--------13--13-13-13-|
|---0---0--0--0-------------------|-----------------------------0---0--0--0-|
|---------------------------------|-----------------------------------------|
|---------------------------------|-----------------------------------------|
|---------------------------------|-----------------------------------------|
|
|
|
|   Q         Q      Q      Q        Q            Q      Q      Q
|---------------------------------|-----------------------------------------|
|---------------------------------|-----------------------------------------|
|---------------------------------|-----------------------------------------|
|------------------------------|-----------------------------------|
|-----------------------|-----------------------------------|
|---------------------------------|-----------------------------------------|

  C9/F                                Gsus2add6        Csus2add6
   E   S  S  E   E  E   E  E   S  S    E   S  S  E   E  E   E  E   E
|-15--15-15-15--15-----12--------15-|--------------------------------|
|-13--15-15-15--13-15-----15--13----|-13--15-15-15--15-15--15-15--15-|
|-----------------------------------|-------------------0---0--0---0-|
|-----------------------------------|--------------------------------|
|-----------------------------------|--------------------------------|
|-----------------------------------|--------------------------------|
|
|
|
|  Q         Q      Q      Q           Q         Q      Q      Q
|-----------------------------------|--------------------------------|
|-----------------------------------|--------------------------------|
|--------------------------------|--------------------------------|
|--------------------------------|--------------------------|
|-----------------------------|--------------------------|
|-----------------------------------|--------------------------------|

  Am11                              D11
    E   S  S  E   E  E   E  E   E    S   S  S  S  E   E  S   S  S  S  E   S  S
|-----------------------12--------|-15--15-15-15-12-----15--15-15-15-15--------|
|--13--15-15-15--13-15-----15--13-|-13--13-13-13-13--13-13--13-13-13-13--13-13-|
|---------------------------------|--------------------------------------------|
|---------------------------------|--------------------------------------------|
|---------------------------------|--------------------------------------------|
|---------------------------------|--------------------------------------------|
|
|
|
|   Q         Q      Q      Q        Q            Q      Q            Q
|---------------------------------|--------------------------------------------|
|---------------------------------|--------------------------------------------|
|---------------------------------|--------------------------------------------|
|------------------------------|--------------------------------------|
|-----------------------|--------------------------------------|
|---------------------------------|--------------------------------------------|

                                                       D C
  C9/F                             Gsus2add6     Csus2add6
   E   S  S  E   E  E   E  E   E    E  S S  E  E  E  E  E  E
|----------------------12--------|---------------------------|
|-13--15-15-15--13-15-----15--13-|---------------------------|
|--------------------------------|---------------------------|
|--------------------------------|--0--0-0--0--0--0--0--0--0-|
|--------------------------------|---------------------------|
|--------------------------------|---------------------------|
|
|
|
|  Q         Q      Q      Q        Q       Q     Q     Q
|--------------------------------|---------------------------|
|--------------------------------|---------------------------|
|-----------------------------|---------------------------|
|-----------------------------|---------------------|
|--------------------------|---------------------|
|--------------------------------|---------------------------|

Guitar Solo

  D5           A7            C             G
   W           W             W             W
|------------|-------------|-------------|---------------|
|------------|-------------|-------------|---------------|
|------------|-------------|-------------|---------------|
|--0---------|-------------|-------------|---------------|
|------------|-------------|-------------|---------------|
|------------|-------------|-------------|---------------|
|
|Gtr IV
|                                                  ~~~
|  W           E E H.        E E H.        E E Q  +H
|------------|-------------|-------------|---------------|
|------------|-------------|-------------|---------------|
|------------|-----0-------|-----0-------|-----0--(0)----|
|---------|---2---------|---2---------|---0-----------|
|------------|-0-----------|-3-----------|---2-----------|
|------------|-------------|-------------|-3-------------|

  D11                       A7                     D11
                                     ~~~                    ~
              |-3-|
  H       S S S S S +E  E   E E Q   +Q   +E  S S   E E E  E Q  Q
|-------------------------|----------------------|-----------------|
|-----------------------5-|---3s8---(8)--(8)-----|-----------------| Gtr II
|---------------2-5-(5)---|-5----------------5-7-|-5-4-5--7s9--9\--|
|---------x-x-2-----------|------------------5-7-|-----------------|
|---------x-x-------------|----------------------|-----------------|
|---------x-x-------------|----------------------|-----------------|
|
|Gtr IV
|
  E E B                     E E B                  E E B
|-------------------------|----------------------|-----------------|
|-------------------------|----------------------|-----------------|
|-----0-------------------|-----0----------------|-----0-----------|
|---4---------------------|---2------------------|---4-------------|
|-5-----------------------|-0--------------------|-5---------------|
|-------------------------|----------------------|-----------------|

  Fadd9                 G                   A7
                                      ~~~
  Q   S S E E S S E E   Q   E  E E E  Q     Q   E   S  S  S  S  S  S  E  E
|---------------------|-------------------|---------------------------------|
|---------------------|-------------------|--------------------13----13p12--|Gtr II
|---------------------|-7---5--7----------|--------------12h14----14--------|
|---------5-7-9s7p5-7-|-7---5--7----------|--------12h14--------------------|
|-----5h7-------------|-5---3--5-3-3s10\--|---------------------------------|
|---------------------|-------------------|---------------------------------|
|
|Gtr IV
|
  E E B                 E E B               E E B
|---------------------|-------------------|---------------------------------|
|---------------------|-------------------|---------------------------------|
|-----0---------------|-----0-------------|-----0---------------------------|
|-----2---------------|---0---------------|---2-----------------------------|
|---0-----------------|---2---------------|-0-------------------------------|
|-1-------------------|-3-----------------|---------------------------------|

  D11                            Fadd9                          G
   ~~~~~~~~~~~~                   ~~
                                       |--3--|
   Q    E.  S  Q   S  S  S  S     Q    S  S  S  E  E  E  E  E    E E E  E  S S  E  E E
|-----------------15-12----12-|------------------------------|-----------10p8----10-8--|
|-----------------------15----|-15---13h15-12-12-13s15-15s13-|-13-------------10----8--|
|-14---12--12\----------------|------------------------------|-------------------------|
|-----------------------------|------------------------------|------7-------------7----|
|-----------------------------|------------------------------|-------------------------|
|-----------------------------|------------------------------|-------------------------|
|
|
|
   E E  B                        E E  B                         E E B
|-----------------------------|------------------------------|-------------------------|
|-----------------------------|------------------------------|-------------------------|
|-------0---------------------|-------0----------------------|------0------------------|
|----4------------------------|-------2----------------------|----0--------------------|
|--5--------------------------|----0-------------------------|----2--------------------|
|-----------------------------|--1---------------------------|--3----------------------|

  A7                       D5            C5
                    ~~~~~~~~~~~~~~~~~~~~~~~~~
   H         +Q    +Q       W            +W
|-14b15=====(14)--(14)--|-(14)--------|-(14)---------|
|-----------------------|-------------|--------------|
|-----------------------|--14---------|-(14)---------|
|-----------------------|-------------|--------------|
|-----------------------|-------------|--------------|
|-----------------------|-------------|--------------|
|
|
|
|  W                       +W            +H     H
|-----------------------|-------------|--------------|
|-----------------------|-------------|--------------|
|--0--------------------|--(0)--------|--(0)---------|
|--2--------------------|--(2)--------|--(2)---------|
|--0--------------------|--(0)--------|--(0)---------|
|-----------------------|-------------|--------------|

                                       (Vocal Bridge)
   D5           A5                      Dsus2
    ~~~~~~~~~~~~~~~~~~
   +W            +Q    +Q    H           W
|-(14)--------|-(14)r=(14)------------|---------------------|
|-------------|-----------------------|---------------------|
|-(14)--------|-(14)--(14)------------|---------------------|
|-------------|-----------------------|---------------------|
|-------------|-----------------------|---------------------|
|-------------|-----------------------|---------------------|
|
|   W             Q     Q    Q    Q      Q    Q    Q    Q
|-------------|-----------------------|---------------------|
|-------------|-----------------------|---------------------|
|-------------|-----------------------|---------------------|
|-------------|--------------------|---------------|
|-------------|-------------|---------------|
|-------------|-----------------------|---------------------|

                               D.S. al Coda
  Cadd6                 Dsus2
   W                     W
|---------------------|---------------------|
|---------------------|---------------------|
|---------------------|---------------------|
|---------------------|---------------------|
|---------------------|---------------------|
|---------------------|---------------------|
|
|  Q    Q    Q    Q      Q    Q    Q    Q
|---------------------|---------------------|
|---------------------|---------------------|
|------------------|---------------------|
|------------------|---------------|
|---------------|---------------|
|---------------------|---------------------|

Outro Pre
Chorus

   E S S S S S S E S S E S S   E S S+S S S S E S S E S S
   | | | | | | | | | | | | |   | | | | | | | | | | | | |
   / / / / / / / / / / / / /   / / / / / / / / / / / / /
|--7-7-7-7-7-7-7-8-----5-----|-7-7-7-7-7-7-7-8-----5----|
|o-8-8-8-8-8-8-8-8-----8-----|-8-8-8-8-8-8-8-8-----8----|
|--7-7-7-7-7-7-7-7-----7-----|-7-7-7-7-7-7-7-7-----7----|
|--x-x-x-x-x-x-x-x-----x-----|-x-x-x-x-x-x-x-x-----x----|
|o-x-x-x-x-x-x-x-x-----x-----|-x-x-x-x-x-x-x-x-----x----|
|--x-x-x-x-x-x-x-x-----x-----|-x-x-x-x-x-x-x-x-----x----|

Gtr 2
(silent)

-

   E S S+S S S S E S S E S S
   | | | | | | | | | | | | |
   / / / / / / / / / / / / /
|--7-7-7-7-7-7-7-8-----5-----|
|--8-8-8-8-8-8-8-8-----8----o|
|--7-7-7-7-7-7-7-7-----7-----|
|--x-x-x-x-x-x-x-x-----x-----|
|--x-x-x-x-x-x-x-x-----x----o|
|--x-x-x-x-x-x-x-x-----x-----|

Gtr 2
(silent)

-

   G             Gsus4 Gsus2   G             Gsus4 G5
   E S S S S S S E S S E S S   E S S S S S S E S S Q
   | | | | | | | | | | | | |   | | | | | | | | | | |
   / / / / / / / / / / / / /   / / / / / / / / / / /
|--7-7-7-7-7-7-7-8-----5-----|-7-7-7-7-7-7-7-8-----10---|
|--8-8-8-8-8-8-8-8-----8-----|-8-8-8-8-8-8-8-8-----8----|
|--7-7-7-7-7-7-7-7-----7-----|-7-7-7-7-7-7-7-7-----7----|
|--x-x-x-x-x-x-x-x-----x-----|-x-x-x-x-x-x-x-x-----x----|
|--x-x-x-x-x-x-x-x-----x-----|-x-x-x-x-x-x-x-x-----x----|
|--x-x-x-x-x-x-x-x-----x-----|-x-x-x-x-x-x-x-x-----x----|

Outro Chorus

Gtr I

   +W
    |
    /
|---10--------------------------------------|
|---8---------------------------------------|
|---7---------------------------------------|
|---x---------------------------------------|
|---x---------------------------------------|
|---x---------------------------------------|
|
|
|Gtr II
|   E  S  S  S  S  S S  S   S S S  S  S S S
|-------------------------------------------|
|--------15-------15-------15-----15--------|
|---0--0--0--0--0--0-0--0---0-0-0--0--0-0-0-|
|-------------------------------------------|
|-------------------------------------------|
|-------------------------------------------|
|
|Gtr IV
|
|   Q        Q          Q          Q
|-------------------------------------------|
|-------------------------------------------|
|-------------------------------------------|
|----------------------------------------|
|---------------------------------|
|-------------------------------------------|

    B                       B
    |
    /
|--10---------------------------------------------|
|--8----------------------------------------------|
|--7----------------------------------------------|
|--x----------------------------------------------|
|--x----------------------------------------------|
|--x----------------------------------------------|
|
|Gtr II
|
|  S   S S  S  S  S  S  S  S   S S  S  S   S  S  S
|--------------------------------------------------|
|-13--15---15-------15-15-----15---13-15--15-15-15-|
|--0-----0--0--0--0--0--0--0---0-0--0--0---0--0--0-|
|--------------------------------------------------|
|--------------------------------------------------|
|--------------------------------------------------|
|
|Gtr IV
|
|  Q           Q           Q           Q
|--------------------------------------------------|
|--------------------------------------------------|
|--------------------------------------------------|
|--------------------------------------------|
|--------------------------------------------|
|--------------------------------------------------|

  Gsus2add6
   S   S S  S  S  S  S  S  S   S S  S  S   S  S  S
|--------------------------------------------------|
|-13--15---13-------15-15-----15---13-15--15-15-13-|
|--0-----0--0--0--0--0--0--0---0-0--0--0---0--0--0-|
|--------------------------------------------------|
|--------------------------------------------------|
|--------------------------------------------------|
|
|
|
|  Q           Q           Q           Q
|--------------------------------------------------|
|--------------------------------------------------|
|-----------------------------------------------|
|-----------------------------------------------|
|--------------------------------------------|
|--------------------------------------------------|

  Dsus4add9
   E  S  S  S  S  S  S  S   S S S  S   S S S
|--------------------------------------------|
|-------15-------15-15-13--15---------15-----|
|--0--0--0--0--0--0--0--0---0-0-0--0---0-0-0-|
|--------------------------------------------|
|--------------------------------------------|
|--------------------------------------------|
|
|
|
|  Q        Q           Q          Q
|--------------------------------------------|
|--------------------------------------------|
|--------------------------------------------|
|--------------------------------------|
|--------------------------------------|
|--------------------------------------------|

  A7sus4
    S   S S  S  S  S  S  S  S   S S  S  S   S  S  S
|---------------------------------------------------|
|--13--15---15-------15-15-----15---13-15--15-15-13-|
|---0-----0--0--0--0--0--0--0---0-0--0--0---0--0--0-|
|---------------------------------------------------|
|---------------------------------------------------|
|---------------------------------------------------|
|
|
|
|   Q           Q           Q           Q
|---------------------------------------------------|
|---------------------------------------------------|
|---------------------------------------------------|
|------------------------------------------------|
|-----------------------------------------|
|---------------------------------------------------|

  Csus2add6
   S   S  S  S  S  S  S  S  S   S S S  S   S S S
|------------------------------------------------|
|-13--15-15-15-------15-15-15--15-----15--15-----|
|--0------0--0--0--0--0--0--0---0-0-0--0---0-0-0-|
|------------------------------------------------|
|------------------------------------------------|
|------------------------------------------------|
|
|
|
|  Q            Q           Q          Q
|------------------------------------------------|
|------------------------------------------------|
|------------------------------------------------|
|------------------------------------------|
|------------------------------------------|
|------------------------------------------------|

  Gsus2add6
   S   S  S  S  S  S  S  S  S   S  S  S  S   S  S  S
|----------------------------------------------------|
|-13--15-15-15-------15-15-15--15-13-13-15--15-15-13-|
|--0------0--0--0--0--0--0--0---0--0--0--0---0--0--0-|
|----------------------------------------------------|
|----------------------------------------------------|
|----------------------------------------------------|
|
|
|
|  Q            Q           Q            Q
|----------------------------------------------------|
|----------------------------------------------------|
|-------------------------------------------------|
|-------------------------------------------------|
|----------------------------------------------|
|----------------------------------------------------|

  Dsus4add9
   S   S  S  S  S   S  S  S  S   S  S  S  S   S  S  S
|-----------------------------------------------------|
|-13--15-15-15-13--15-15-15-15--15-15-15-15--15-15-15-|
|--0---0--0--0--0---0--0--0--0---0--0--0--0---0--0--0-|
|-----------------------------------------------------|
|-----------------------------------------------------|
|-----------------------------------------------------|
|
|
|
|  Q            Q            Q            Q
|-----------------------------------------------------|
|-----------------------------------------------------|
|-----------------------------------------------------|
|-----------------------------------------------|
|-----------------------------------------------|
|-----------------------------------------------------|

  Am11                              D11
    E   S  S  E   E  E   E  E   E    S   S  S  S  E   E  E   E  S   S  S  S
|-----------------------12--------|-15--15-15-15-12-----15--15-15--15-15-15-|
|--13--15-15-15--13-15-----15--13-|------------------13--------13--13-13-13-|
|---0---0--0--0-------------------|-----------------------------0---0--0--0-|
|---------------------------------|-----------------------------------------|
|---------------------------------|-----------------------------------------|
|---------------------------------|-----------------------------------------|
|
|
|
|   Q         Q      Q      Q        Q            Q      Q      Q
|---------------------------------|-----------------------------------------|
|---------------------------------|-----------------------------------------|
|---------------------------------|-----------------------------------------|
|------------------------------|-----------------------------------|
|-----------------------|-----------------------------------|
|---------------------------------|-----------------------------------------|

  C9/F                                Gsus2add6        Cadd6add9
   E   S  S  E   E  E   E  E   S  S    E   S  S  E   E  E   E  E   E
|-15--15-15-15--15-----12--------15-|--------------------------------|
|-13--15-15-15--13-15-----15--13----|-13--15-15-15--15-15--15-15--15-|
|-----------------------------------|-------------------0---0--0---0-|
|-----------------------------------|--------------------------------|
|-----------------------------------|--------------------------------|
|-----------------------------------|--------------------------------|
|
|
|
|  Q         Q      Q      Q           Q         Q      Q      Q
|-----------------------------------|--------------------------------|
|-----------------------------------|--------------------------------|
|--------------------------------|--------------------------------|
|--------------------------------|--------------------------|
|-----------------------------|--------------------------|
|-----------------------------------|--------------------------------|

  Am11                              D11
    E   S  S  E   E  E   E  E   E    S   S  S  S  E   E  S   S  S  S  E   S  S
|-----------------------12--------|-15--15-15-15-12-----15--15-15-15-15--------|
|--13--15-15-15--13-15-----15--13-|-13--13-13-13-13--13-13--13-13-13-13--13-13-|
|---------------------------------|--------------------------------------------|
|---------------------------------|--------------------------------------------|
|---------------------------------|--------------------------------------------|
|---------------------------------|--------------------------------------------|
|
|
|
|   Q         Q      Q      Q        Q            Q      Q            Q
|---------------------------------|--------------------------------------------|
|---------------------------------|--------------------------------------------|
|---------------------------------|--------------------------------------------|
|------------------------------|--------------------------------------|
|-----------------------|--------------------------------------|
|---------------------------------|--------------------------------------------|

  C9/F                             Gsus2add6     Cadd6add9
   E   S  S  E   E  E   E  E   E    E  S S  E  E  E  E  E   E
|----------------------12--------|----------------------------|
|-13--15-15-15--13-15-----15--13-|---------------------15--15-|
|--------------------------------|----------------------------|
|--------------------------------|--0--0-0--0--0--0--0--------|
|--------------------------------|----------------------------|
|--------------------------------|----------------------------|
|
|
|
|  Q         Q      Q      Q        Q       Q     Q     Q
|--------------------------------|----------------------------|
|--------------------------------|----------------------------|
|-----------------------------|----------------------------|
|-----------------------------|----------------------|
|--------------------------|----------------------|
|--------------------------------|----------------------------|

  Am11                              D11
    E   S  S  E   E  E   E  E   E    Q    E   E  S   S  S  S  E   E
|-----------------------12--------|-15---12-----15--15-15-15-15-----|
|--13--15-15-15--13-15-----15--13-|-13---13--13-13--13-13-13-13--13-|
|---------------------------------|---------------------------------|
|---------------------------------|---------------------------------|
|---------------------------------|---------------------------------|
|---------------------------------|---------------------------------|
|
|
|
|   Q         Q      Q      Q        Q    Q      Q            Q
|---------------------------------|---------------------------------|
|---------------------------------|---------------------------------|
|---------------------------------|---------------------------------|
|------------------------------|---------------------------|
|-----------------------|---------------------------|
|---------------------------------|---------------------------------|

  Fadd9                                   Gsus4add6add9
   E   S  S  E   E  E   S  S  +E   S  S    E   E  E   E  Q    Q
|--------12---------------12-(12)-12----|--------12---------------|
|-13--15----15--13-13--15------------13-|-13--15-----15-13--------|
|---------------------------------------|-------------------------|
|---------------------------------------|-------------------------|
|---------------------------------------|-------------------------|
|---------------------------------------|-------------------------|
|
|
|
|  Q         Q      Q          Q           Q      Q      Q    Q
|---------------------------------------|-------------------------|
|---------------------------------------|-------------------------|
|------------------------------------|-------------------------|
|------------------------------------|-------------------|
|---------------------------------|-------------------|
|---------------------------------------|-------------------------|

  A7sus4
    W             +H      +H         +W
|-------------|------------------|-----------*|
|--15---------|--(15)------------|-----------*|
|---0---------|---(0)-----(0)----|---(0)-----*|
|---0---------|---(0)-----(0)----|---(0)-----*|
|---0---------|---(0)-----(0)----|---(0)-----*|
|-------------|------------------|-----------*|
|
|
|
|   W             +W                 +W
|-------------|------------------|-----------*|
|-------------|------------------|-----------*|
|-------------|------------------|-----------*|
|---------|-()-----------|-()----*|
|-------------|------------------|-----------*|
|-------------|------------------|-----------*|

W - whole
H - half
Q - quarter
E - 8th
S - 16th
T - 32nd
X - 64th
a - acciaccatura
+ - note tied to previous
. - note dotted
.. - note double dotted
Uncapitalized letters represent notes that are staccato (1/2 duration)
Irregular groupings are notated above the duration line
Duration letters will always appear directly above the note/fret number it represents the
duration for.  Duration letters with no fret number below them represent rests.  Multi-
bar rests are notated in the form Wxn, where n is the number of bars to rest for.  Low
melody durations appear below the staff

 h   - hammer-on
 p   - pull-off
 b   - bend
 pb  - pre-bend
 r   - bend release (if no number after the r, then release immediately)
 /\  - slide into or out of (from/to "nowhere")
 s   - legato slide
 S   - shift slide


   - natural harmonic
[n]  - artificial harmonic
n(n) - tapped harmonic
 ~   - vibrato
 tr  - trill
 T   - tap
 TP  - trem. picking
 PM  - palm muting
\n/  - tremolo bar dip; n = amount to dip
 \n  - tremolo bar down
 n/  - tremolo bar up
/n\  - tremolo bar inverted dip
 =   - hold bend; also acts as connecting device for hammers/pulls
 <>  - volume swell (louder/softer)
 x   - on rhythm slash represents muted slash
 o   - on rhythm slash represents single note slash

Misc Legend

 |  - bar
||  - double bar
||o - repeat start
o|| - repeat end
*|  - double bar (ending)
 :  - bar (freetime)
 $  - Segno
 &  - Coda
Tempo markers -
 
   = BPM(8/16=s8/s16), where s8 = swing 8ths, s16 = swing 16ths