Sandwich - Sugod Text Guitar Tab

Learn song with the online tabulature player
This Tab Is DedIcaTed to thE STuDeNtZ Of TaRitZ saNa MagUsToHan Nyo
PinaGHiRaPaN konG KaPaIn Yan HEhe this Is 
90.9% sure hehe

Standard tuning 


introduction

(dugspak dugspak)4x hehe

guitar 1:

e|----------------------------|
B|--33-----3------------------|
G|----2244---2244-------------|
D|----------------------------| 
A|----------------------------|
E|----------------------------|

Guitar 2: papasok na to pag nakadalawang intro ang guitar 1


e|--22----22-------------------|
B|----2233--2233---------------|
G|-----------------------------|
D|-----------------------------|
A|-----------------------------|
E|-----------------------------|

Chorus:

guitar 1:
(palm muted)
e|------------------------------------------|
B|------------------------------------------|
G|---7--------------------------------------|
D|---7---(16)--5-------5--------------------|
A|---5---------5-(16x)-4--------------------|
E|-------------3-------3--------------------|

guitar 2:

e|------------------------------------------|
B|------------------------------------------|
G|----7-9s11-9-7-9-7-------6-7-6-7-6-7-6----|
D|-7h9---------------9-7h9---------------9--|
A|------------------------------------------|
E|------------------------------------------|

SUgod mga kapatid! tayo ay magsama-sama
iwagayway na ang bandera! rack en rowl hanggang umaga

verse:

Guitar 1:

e|------------------------------------------|
B|------------------------------------------|
G|------------------------------------------|
D|------------------------------------------|
A|-55-88--1010----33-11---------------------|
E|------------------------------------------|

guitar 2:
    (effects: echo & delay)
e|-17b--------------------------------------|
B|----15b-18b-------------------------------|
G|------------15b---------------------------|
D|------------------------------------------|
A|------------------------------------------|
E|------------------------------------------|

I-text mo nah cna mark at jonnel lagyna ng g-yel 
ang buhok na bagong gupet supot mo na ang sapatos pamporma
hanep pumormah walang kokontra (walang kumontrah!)

refrain:

guitar 1:
timingan nyo nalang kung kilan lilipat kasi 12 beat to eh

(palm muted)
e|------------------------------------------------------------|
B|------------------------------------------------------------|
G|------------------------------------------------------------|
D|------------------------------------------------------------|
A|-5555555555777777799999999101010101010107777777777775b------|
E|------------------------------------------------------------|


return to introduction

"hala bira"

chorus

verse *this time naka power chord

e|------------------------------------------|
B|------------------------------------------|
G|-77-10-10-12-12-55-33---------------------|
D|-xx-x--x--x--x--xx-xx---------------------|
A|-55-8--8-10--10-33-11---------------------|
E|------------------------------------------|

guitar 2:

e|-17b--------------------------------------|
B|----15b-18b-------------------------------|
G|------------15b---------------------------|
D|------------------------------------------|
A|------------------------------------------|
E|------------------------------------------|

refrain
introduction
"FieSta!!"
chorus

outro

guitar 1:

e|---------------------------------|
B|--33-----3------33-----33----3---|
G|----2244---2244---2244---2244----|
D|---------------------------------| 
A|---------------------------------|
E|---------------------------------|

guitar2:

e|------------------------------------------|
B|------------------------------------------|
G|------------------------------------------|
D|--77-77-77-77-77-77-77-77-7---------------|
A|--77-77-77-77-77-77-77-77-7---------------|
E|--55-55-55-55-55-55-55-55-5---------------|


If you have a very serious comment about my tab contakin nyo ako
im just a text away hehe
09225475022!