Scorpions - No One Like You Text Guitar Tab

Learn the song with the online tablature player
This should be accurate.

Good luck this is a great solo to learn.  It will sound best on a Gibson with Marshal amp!

INTRO SOLO

p1
15b-----------------------------------------------------------------15------------------
----------------------------------------------------------------15b----(15)~~~~---------
----14--16--16b-r-14/12--14p12--------------14-16-16br-14s12----------------------------
--------------------------------14~~~~~-------------------------------------------------

p2
---------------17---------20---20b~~~---17---20---19p17---19p17--------17---------------
------17--20b------20p17------------------------------------------20-------20b~~~~~-----
-/17------------------------------------------------------------------------------------

-19br--17------19b~~~~~~~~--------------------------------------------------------------

15b-----------------------------------------------------------------15------------------
----------------------------------------------------------------15b----(15)~~~~---------
----14--16--16b-r-14/16--14p12--------------14-16-16br-14s12----------------------------
--------------------------------14~~~~~-------------------------------------------------

p4
---------------17---------20b---20~~~---17---20p19p17---19p17------17-------------------
------17--20b------20p17---------------------------------------20b------20p17------17---
-/17---------------------------------------------------------------------------19-------

p4 cont.

------20--19p17-------------------------------------17~~~~~~----------------------------
------------------19b-r--(19)p17------19-----17-----------------------------------------

Girl, Its been a long time that we've been apart, much to ling for a man who needs love.
I've missed you since I've been away........
-------------------------------(semi harmonic)------------------------------------8b~~~~~~~---
---7(b-hold)------7-7-7-7-7-7-7-7-7-7-7-7(r)----(7b1/2) (7r)  p5 -7--5-----------------------
---------14b-----(14r)  p12----------14----------------------7---(7b)---------------8-7p5-----
(0)*-----------------------------14--------------------------------------------------------7--

--------7p5--7---7p5-----------------------------------------------------
---------------------------7-6-5-3--------3b(slow)-----------------------

--17/20~~~~~~~----17-19-19b--17----------17----19/22b------------------17-------17-------
-----------------------------------------------------------(10) /17----------------------

--17----------17----------17---------17---------17-----------17-20b--17--------17-20b--17-----17-
-------20b----------20b-------20b--------20b-------20b----------------------20b-----------20b----

-20b(hold)---20---20---20r-----20-20-20p17--------------17-h-20-p-17----------17-h-19-p-17-------
----------------------------------------------------19-18-17-15b(hold)------15(r)---