Six Feet Under - Still Alive Text Guitar Tab

Learn song with the online tabulature player
Still Alive
By: Six Feet Under
Tabbed by Billy Denehy
Drop "D" Tuning

Riff 1
|--------------------------------------------|
|--------------------------------------------|
|--------------------------------------------|
|-0-0-2-0-0-3--0-1--0-4----------------------|
|-0-0-2-0-0-3--0-1--0-4----------------------|
|-0-0-2-0-0-3--0-1--0-4----------------------|

Riff 2
|--------------------------------------------|
|--------------------------------------------|
|--------------------------------------------|
|-0-7-8--0-3-4--0-7-8--0-3-4--0-6-5----------|
|-0-7-8--0-3-4--0-7-8--0-3-4--0-6-5----------|
|-0-7-8--0-3-4--0-7-8--0-3-4--0-6-5----------|

Riff 3
|----------------------|
|----------------------|
|----------------------|
|-3----4----0----1-----|
|-3----4----0----1-----|
|-3----4----0----1-----|

Listen to the album for the rythym and order.  I believe these are all the
parts. Please e-mail corrections and comments to Pantera606@AOL.com.