Sleep - Dragonaut Text Guitar Tab

Learn the song with the online tablature player
Dragonaut - Sleep

INTRO

Guitar plays riff once

G|--------------------------------8p7p5--------------------------|
D|---------------------5-----7-----------7p5---------------------|
A|--0-3-0-3--0-------7---7--------------------7p5----------------|
E|---------------------------------------------------------------| x1

G|--------------5------------------------------------------------|
D|-------5h7------7-5-----5h7-------5h7---------5-----5h7--------|
A|--3-0------0---------7-------3-0-------0--5-7----7-------------|
E|---------------------------------------------------------------| x8

VERSE 1

Guitar plays riff once all the way through

G|--7h9---9-7-9-10-9-7-9-----------------------------------------|
D|---------------------------9-8-7-------------------------------|
A|---------------------------------------------------------------|
E|---------------------------------------------------------------| x1

G|---------------------------------------------------------------|
D|--5----------5---------------------5-----------5-------9-8-7---|
A|-----5h7--7-----5h7--7-5-7-8-7--5------5h7--7-----5h7----------|
E|---------------------------------------------------------------| x4

1st BREAK

G|---------------------------------------------------------------|
D|---------------------------------------------------------------|
A|--5h7--7-7-------5h7--7-7-------5h7--7-7-----------------------|
E|------------0-0------------0-0------------0-0---7-6---6-5------| x4

VERSE 2

G|---------------------------------------------------------------|
D|------------------------------5----------5--------9-8-7--------|
A|--7--7--7--7--7--7-5-7-8-7-5----5h7--7------5h7----------------|
E|---------------------------------------------------------------| x1

G|---------------------------------------------------------------|
D|--5----------5---------------------5-----------5-------9-8-7---|
A|-----5h7--7-----5h7--7-5-7-8-7--5------5h7--7-----5h7----------|
E|---------------------------------------------------------------| x3

2nd BREAK

Guitar plays riff once all the way through

G|---------------------------------------------------------------|
D|----------------------------------5----------------------------|
A|------7---5---7---5---7--------------5h7-----------------------|
E|--0-0---0---0---0---0---0--5h6h7-------------------------------|

G|---------------------------------------------------------------|
D|--------------------------------5------------------------------|
A|------7---5---7----------7p5-------7p5-----5h7-----------------|
E|--0-0---0---0---0-5h6h7------7----------7----------------------|

G|---------------------------------------------------------------|
D|---------------------------------------------------------------|
A|------7---5---7---5---7----------------------------------------|
E|--0-0---0---0---0---0---0--5-6-5--3-5-3------------------------|

G|---------------------------------------------------------------|
D|--------------------------------5------------------------------|
A|------7---5---7----------7p5-------7p5-----5h7-----------------|
E|--0-0---0---0---0-5h6h7------7----------7----------------------|

Play 2nd Break again

VERSE 3

Guitar plays riff once all the way through

G|--7h9--9--9--9--9--9-7-9-10-9-7-9-7-9--9--9-7-9-7--------------|
D|---------------------------------------------------9-8-7-------|
A|---------------------------------------------------------------|
E|---------------------------------------------------------------| x1

G|---------------------------------------------------------------|
D|--5----------5---------------------5-----------5-------9-8-7---|
A|-----5h7--7-----5h7--7-5-7-8-7--5------5h7--7-----5h7----------|
E|---------------------------------------------------------------| x2

GUITAR SOLO

G|---------------------------------------------------------------|
D|--5----------5---------------------5-----------5-------9-8-7---|
A|-----5h7--7-----5h7--7-5-7-8-7--5------5h7--7-----5h7----------|
E|---------------------------------------------------------------|

G|------------------------------7---7h9p7--/12-7h9p7-------------|
D|-5-------5----------------7h9---9------------------9p8p7-5h7p5-|
A|---5h7-7---5h7--7-5-7-8-7--------------------------------------|
E|---------------------------------------------------------------|

(No Clue What he is playing during the rest of the guitar solo.
Repeating what I have above, and then playing what I have below seems
to work fine though.)

G|---------------------------------------------------------------|
D|----5^---------5^-----------------5----------------------------|
A|-7------7-7p5-------7-5-7------------7p5-----------------------|
E|---------------------------5h6h7-------------------------------|

BASS SOLO
Starts at about 5:00)

G|---------------------------------------------------------------|
D|----5^---------5^-----------------5-------5^---------5^--------|
A|-7------7-7p5-------7-5-7------------7p5------7-5-7------5-7---|
E|---------------------------5h6h7-------------------------------|

G|----------------------------------9p7--------------------------|
D|---------------------5^-----7h8h9-----9-7h9p7--5h7p5-----------|
A|-7-5-7--------5h6h7------7----------------------------7p5h7----|
E|-------5h6h7---------------------------------------------------|

G|---------------------------------------------------------------|
D|--5^-----------5-----------------------5-------5^--------------|
A|-----7-5-7--------7p5-7---------5h6h7-----7p5------7-5-7-------|
E|-----------0-------------5h6h7---------------------------0-----|

G|---------------------------------------------------------------|
D|----------5----------------5----------------5------------------|
A|---5h7-7-----7p5-7----5h7-----7p5-7----5h7-----7p5-7-----------|
E|-7------------------7----------------7-------------------------|

G|---------------------------------------------------------------|
D|--------5-----------------5^--------------------5^-------------|
A|-----------7p5-----5h7-7------7-5h7--------5-7------7----------|
E|-5h6h7----------7-------------------5-6-7----------------------|

G|---------7-9-7------/12--9--7-9-7------------------------------|
D|--7-8-9--------9-8----------------9--8-7-5-7--7h8-7h8-7-5------|
A|---------------------------------------------------------------|
E|---------------------------------------------------------------|

G|---------------------------------------------------------------|
D|----5----------------------------------------------------------|
A|--7----7p5---5/7~----------------------------------------------|
E|-----------7---------------------------------------------------|

| /  slide up
| h  hammer-on
| p  pull-off
| ~  vibrato
| ^  bend