Stone Temple Pilots - Big Empty Text Guitar Tab

Learn song with the online tabulature player
================================================================
                  Big Empty- Stone Temple Pilots
================================================================
 As recorded by Stone Temple Pilots
                 (From the 1994 Album Purple)

Words and Music by Stone Temple Pilots


Gtr I (D G D G B D) - 'Slide Guitar'
Gtr II (E A D G B E) - 'Verse Guitar'
Gtr III (E A D G B E) - 'Overdriven Guitar'

This tab is organized into 3 sections. the 1st is the slide guitar during verses, the second
is the guitar in the background during verses, and the 3rd is the overdriven guitar 
the chorus and electric parts

================================================================
              1st Guitar- Slide Guitar (Tuning: Open G)
================================================================
            slide vibrato througout
                                       |--3--|
     Q      Q                     Q    E  E  E       Q     E.  S Q     E.  S
D||---------------------------------------------|----------------------------|
B||-------5g8~--------------------L----L--7--8--|--5g7~----L---3-3~----L---0-|
G||---------------------------------------------|----------------------------|
D||---------------------------------------------|----------------------------|
G||---------------------------------------------|----------------------------|
D||---------------------------------------------|----------------------------|


                                  slide down and back up just before note
      E   E   H         X  X      T                                   E   S
---------12~--L----------------------------------------------------------12-|
--10g12----------------12S-5S-10g12-----------------------------------L-----|
----------------------------------------------------------------------------|
----------------------------------------------------------------------------|
----------------------------------------------------------------------------|
----------------------------------------------------------------------------|


         |---3--|  |----3---|
   Q     E  E   E  E   E    E  E   S  S      E   E   H.
-----------------------------------------|------12~--L------------|
--11~----L--8--10-----11S--10--8--10S-8S-|--12--------------------|
-----------------------------------------|------------------------|
-----------------------------------------|------------------------|
-----------------------------------------|------------------------|
-----------------------------------------|------------------------|


  W                   W                   W
-------------------|-------------------|-------------------|
-------------------|-------------------|-------------------|
-------------------|-------------------|-------------------|
-------------------|-------------------|-------------------|
-------------------|-------------------|-------------------|
-------------------|-------------------|-------------------|


    W                    W                   W
----------------------|-------------------|-------------------|
----------------------|-------------------|-------------------|
--7g9~----------------|-------------------|-------------------|
--7g9~----------------|-------------------|-------------------|
----------------------|-------------------|-------------------|
----------------------|-------------------|-------------------|


  W                   W                   W                   W
-------------------|-------------------|-------------------|-------------------|
-------------------|-------------------|-------------------|-------------------|
-------------------|-------------------|-------------------|-------------------|
-------------------|-------------------|-------------------|-------------------|
-------------------|-------------------|-------------------|-------------------|
-------------------|-------------------|-------------------|-------------------|


  W                   W                   W                   W
-------------------|-------------------|-------------------|-------------------|
-------------------|-------------------|-------------------|-------------------|
-------------------|-------------------|-------------------|-------------------|
-------------------|-------------------|-------------------|-------------------|
-------------------|-------------------|-------------------|-------------------|
-------------------|-------------------|-------------------|-------------------|


  W                   W                   W
-------------------|-------------------|-------------------|
-------------------|-------------------|-------------------|
-------------------|-------------------|-------------------|
-------------------|-------------------|-------------------|
-------------------|-------------------|-------------------|
-------------------|-------------------|-------------------|


  Q        S   S  E    H            E    E  S  E   S   Q     S S  S  S
-------10g12S-10-----------------|-------------------------------------|
-----------------10S--11~--------|-----2g5--8-10--10S-11~----L-8-10S-8-|
---------------------------------|-------------------------------------|
---------------------------------|-------------------------------------|
---------------------------------|-------------------------------------|
---------------------------------|-------------------------------------|


      E   E   S     S   S  S  E  S    S  E     E      S   S  E  H.
---------12~--L-12g14S-12--------------------------|-------------------------|
--10g12-------------------12S-L----8g11S-L--8g10S--|--L-2g5~-L--L------------|
---------------------------------------------------|-------------------------|
---------------------------------------------------|-------------------------|
---------------------------------------------------|-------------------------|
---------------------------------------------------|-------------------------|


  W                   W                   H        Q    S S  S S
-------------------|-------------------|--------------------------|
-------------------|-------------------|--------------------------|
-------------------|-------------------|------------------9S-3-3S-|
-------------------|-------------------|--------------------------|
-------------------|-------------------|--------------------------|
-------------------|-------------------|--------------------------|


  S S  E   H        S S  E        Q     E.  S  Q     Q       W
----------------------------|-----------------------------|-------------------|
----------------------------|-----------------------------|-------------------|
--9-7S-9~--L--------L-7S-9--|--9g12~----L---9S-7~---------|-------------------|
----------------------------|-----------------------------|-------------------|
----------------------------|-----------------------------|-------------------|
----------------------------|-----------------------------|-------------------|


  W                   W                   W                   W
-------------------|-------------------|-------------------|-------------------|
-------------------|-------------------|-------------------|-------------------|
-------------------|-------------------|-------------------|-------------------|
-------------------|-------------------|-------------------|-------------------|
-------------------|-------------------|-------------------|-------------------|
-------------------|-------------------|-------------------|-------------------|


  W                   W                   W                   W
-------------------|-------------------|-------------------|-------------------|
-------------------|-------------------|-------------------|-------------------|
-------------------|-------------------|-------------------|-------------------|
-------------------|-------------------|-------------------|-------------------|
-------------------|-------------------|-------------------|-------------------|
-------------------|-------------------|-------------------|-------------------|


  W                   W                   W
-------------------|-------------------|-------------------|
-------------------|-------------------|-------------------|
-------------------|-------------------|-------------------|
-------------------|-------------------|-------------------|
-------------------|-------------------|-------------------|
-------------------|-------------------|-------------------|


    W                   W                     W
|--------------------|--------------------||-------------------|
|--------------------|--------------------||-------------------|
|*-------------------|-------------------*||-------------------|
|*-------------------|-------------------*||-------------------|
|--------------------|--------------------||-------------------|
|--------------------|--------------------||-------------------|


  W                   W                   H        Q    E  E
-------------------|-------------------|-----------------------|
-------------------|-------------------|-------------------3S--|
-------------------|-------------------|-----------------------|
-------------------|-------------------|-----------------------|
-------------------|-------------------|-----------------------|
-------------------|-------------------|-----------------------|


  H.            S S S  S    S E.   H        E  S  S
-------------------------|--------------------------|
--8~------------L-8-7S-8-|--L-7~---L-----------7S-8-|
-------------------------|--------------------------|
-------------------------|--------------------------|
-------------------------|--------------------------|
-------------------------|--------------------------|


                                                 slide down
                                                            |---3---|
  S S   E   H        E  S   S    S  S   E   Q    Q          E  E    E
------------------------------|----------------------------------------|
--L-8S-10~--L--------L--8S-10-|--L-10S-12~--L----L-------------3S--12--|
------------------------------|----------------------------------------|
------------------------------|----------------------------------------|
------------------------------|----------------------------------------|
------------------------------|----------------------------------------|


                             |--3-|
   S   E.   H          S  S  S S  S
-------------------------------------|
--12S-14----L~--------14-14-14---14S-|
-----------14~-----------------------|
-----------14~-----------------------|
-------------------------------------|
-------------------------------------|


              no slide, gradual (slide with hand, don't bend)
  S  S  Q     E                                              H
-----------------------------------------------------------------------|
--L-15~-L----------------------------------------------------2b--------|
-------------------------------------------------------------2b--------|
-------------12S---------------------------------------------2b--------|
-----------------------------------------------------------------------|
-----------------------------------------------------------------------|


  W                   W                   W                   W
-------------------|-------------------|-------------------|-------------------|
-------------------|-------------------|-------------------|-------------------|
-------------------|-------------------|-------------------|-------------------|
-------------------|-------------------|-------------------|-------------------|
-------------------|-------------------|-------------------|-------------------|
-------------------|-------------------|-------------------|-------------------|


  W                   W                   W                   W
-------------------|-------------------|-------------------|-------------------|
-------------------|-------------------|-------------------|-------------------|
-------------------|-------------------|-------------------|-------------------|
-------------------|-------------------|-------------------|-------------------|
-------------------|-------------------|-------------------|-------------------|
-------------------|-------------------|-------------------|-------------------|


  W                   W                     W
-------------------|-------------------||--------------------|
-------------------|-------------------||--------------------|
-------------------|-------------------||*-------------------|
-------------------|-------------------||*-------------------|
-------------------|-------------------||--------------------|
-------------------|-------------------||--------------------|


  W                     W                   W
--------------------||-------------------|-------------------||
--------------------||-------------------|-------------------||
-------------------*||-------------------|-------------------||
-------------------*||-------------------|-------------------||
--------------------||-------------------|-------------------||
--------------------||-------------------|-------------------||



================================================================================
2nd Guitar- Verse Guitar (played clean or with very low gain (Tuning: Standard)
================================================================================
                                  Big Empty


Guitar 2
                        |---3---|
     Q    E.  S S S S S S  S E  E     E.  S E.  S S S S S T  T E  S
E||-------0---0--------------------|--------0---0-------------------|
B||-------3---3--------------3-----|--------1---1-------------------|
G||-------3---3-------0-0h-3-0-----|--------3---3-x-x-x-3------3----|
D||-------------x-x-x-0-0-------0--|------2-------------0-0h-2-0--0-|
A||--2-----------------------------|--3-----------------------------|
E||--0-----------------------------|--------------------------------|


  E.  S E.  S S S S S S E  S    E.  S E.  S S S S S T  T E  S
-----------------------------|--------0---0-------------------|
--------3---3----------------|--------1---1-------------------|
--------3---3-x-x-x-----0----|--------3---3-x-x-x-3-3----3----|
--------2---2---------2----0-|------2-------------0-0h-2-0--0-|
--2---2-------------2--------|--3-----------------------------|
--0---0----------------------|--------------------------------|


                     |---3---|
  Q    E.  S S S S S S  S E  E     E.  S E.  S S S S S T  T E  S
-------0---0--------------------|--------0---0-------------------|
-------3---3--------------3-----|--------1---1-------------------|
-------3---3-------0-0h-3-0-----|--------3---3-x-x-x-3------3----|
-------------x-x-x-0-0-------0--|------2-------------0-0h-2-0--0-|
--2-----------------------------|--3-----------------------------|
--0-----------------------------|--------------------------------|


                     |---3---|
  Q    E.  S S S S S S  S E  E     E.  S E.  S S S S S T  T E  S
-------0---0--------------------|--------0---0-------------------|
-------3---3--------------3-----|--------1---1-------------------|
-------3---3-------0-0h-3-0-----|--------3---3-x-x-x-3------3----|
-------------x-x-x-0-0-------0--|------2-------------0-0h-2-0--0-|
--2-----------------------------|--3-----------------------------|
--0-----------------------------|--------------------------------|


                     |---3---|
  Q    E.  S S S S S S  S E  E     E.  S E.  S S S S S T  T E  S
-------0---0--------------------|--------0---0-------------------|
-------3---3--------------3-----|--------1---1-------------------|
-------3---3-------0-0h-3-0-----|--------3---3-x-x-x-3------3----|
-------------x-x-x-0-0-------0--|------2-------------0-0h-2-0--0-|
--2-----------------------------|--3-----------------------------|
--0-----------------------------|--------------------------------|


                     |---3---|
  Q    E.  S S S S S S  S E  E     E.  S E  E  S E.  E  S S
-------0---0--------------------|--0---0-L--0--L-0---0------|
-------3---3--------------3-----|--1---1-L--1--L-1---1------|
-------3---3-------0-0h-3-0-----|--3---3-L--3--L-3---3--x-x-|
-------------x-x-x-0-0-------0--|--2---2-L--2--L-2---2------|
--2-----------------------------|--3---3-L--3--L-3---3------|
--0-----------------------------|---------------------------|


  W                   W                   W                   W
-------------------|-------------------|-------------------|-------------------|
-------------------|-------------------|-------------------|-------------------|
-------------------|-------------------|-------------------|-------------------|
-------------------|-------------------|-------------------|-------------------|
-------------------|-------------------|-------------------|-------------------|
-------------------|-------------------|-------------------|-------------------|


  W                   W                   W                   W
-------------------|-------------------|-------------------|-------------------|
-------------------|-------------------|-------------------|-------------------|
-------------------|-------------------|-------------------|-------------------|
-------------------|-------------------|-------------------|-------------------|
-------------------|-------------------|-------------------|-------------------|
-------------------|-------------------|-------------------|-------------------|


                   P.M.
  Q    E.  S E  E  E    E     E  E  H.
---------------------------|---------------------|
------------------------0--|--L--0--L------------|
-----------0------------2--|--L--1--L------------|
--0--------0------------0--|--L--0--L------------|
--3----2-----0--2-------2--|--L--2--L------------|
--3----3-----1--1--0----0--|--L--0--L------------|


                                                      |---3---|
  E.  S E.  S S S S S T  T E  S    Q    E.  S S S S S S  S E  E
--------0---0-------------------|-------0---0--------------------|
--------1---1-------------------|-------3---3--------------3-----|
--------3---3-x-x-x-3------3----|-------3---3-------0-0h-3-0-----|
------2-------------0-0h-2-0--0-|-------------x-x-x-0-0-------0--|
--3-----------------------------|--2-----------------------------|
--------------------------------|--0-----------------------------|


                                                      |---3---|
  E.  S E.  S S S S S T  T E  S    Q    E.  S S S S S S  S E  E
--------0---0-------------------|-------0---0--------------------|
--------1---1-------------------|-------3---3--------------3-----|
--------3---3-x-x-x-3------3----|-------3---3-------0-0h-3-0-----|
------2-------------0-0h-2-0--0-|-------------x-x-x-0-0-------0--|
--3-----------------------------|--2-----------------------------|
--------------------------------|--0-----------------------------|


                                                      |---3---|
  E.  S E.  S S S S S T  T E  S    Q    E.  S S S S S S  S E  E
--------0---0-------------------|-------0---0--------------------|
--------1---1-------------------|-------3---3--------------3-----|
--------3---3-x-x-x-3------3----|-------3---3-------0-0h-3-0-----|
------2-------------0-0h-2-0--0-|-------------x-x-x-0-0-------0--|
--3-----------------------------|--2-----------------------------|
--------------------------------|--0-----------------------------|


                                                      |---3---|
  E.  S E.  S S S S S T  T E  S    Q    E.  S S S S S S  S E  E
--------0---0-------------------|-------0---0--------------------|
--------1---1-------------------|-------3---3--------------3-----|
--------3---3-x-x-x-3------3----|-------3---3-------0-0h-3-0-----|
------2-------------0-0h-2-0--0-|-------------x-x-x-0-0-------0--|
--3-----------------------------|--2-----------------------------|
--------------------------------|--0-----------------------------|


                                                      |---3---|
  E.  S E.  S S S S S T  T E  S    Q    E.  S S S S S S  S E  E
--------0---0-------------------|-------0---0--------------------|
--------1---1-------------------|-------3---3--------------3-----|
--------3---3-x-x-x-3------3----|-------3---3-------0-0h-3-0-----|
------2-------------0-0h-2-0--0-|-------------x-x-x-0-0-------0--|
--3-----------------------------|--2-----------------------------|
--------------------------------|--0-----------------------------|


  E.  S E  E  S E.  E  S S    W                   W
--0---0-L--0--L-0---0------|-------------------|-------------------|
--1---1-L--1--L-1---1------|-------------------|-------------------|
--3---3-L--3--L-3---3--x-x-|-------------------|-------------------|
--2---2-L--2--L-2---2------|-------------------|-------------------|
--3---3-L--3--L-3---3------|-------------------|-------------------|
---------------------------|-------------------|-------------------|


  W                   W                   W                   W
-------------------|-------------------|-------------------|-------------------|
-------------------|-------------------|-------------------|-------------------|
-------------------|-------------------|-------------------|-------------------|
-------------------|-------------------|-------------------|-------------------|
-------------------|-------------------|-------------------|-------------------|
-------------------|-------------------|-------------------|-------------------|


                                                           P.M.
  W                   W                   Q    E.  S E  E  E    E
-------------------|-------------------|---------------------------|
-------------------|-------------------|------------------------0--|
-------------------|-------------------|-----------0------------2--|
-------------------|-------------------|--0--------0------------0--|
-------------------|-------------------|--3----2-----0--2-------2--|
-------------------|-------------------|--3----3-----1--1--0----0--|


                                                   P.M.
  E  E  E.  S S S E  S S S S      Q    E.  S E  E  E    E
--------0---0-0-0-0--L-0-0---||----------------------------|
--L--0--0---0-0-0-0--L-0-0-0-||-------------------------0--|
--L--1--1---1-1-1-1--L-1-1-0-||*-----------0------------2--|
--L--0--0---0-0-0-0--L-0-0-0-||*--0--------0------------0--|
--L--2--2---2-2-2-2--L-2-2---||---3----2-----0--2-------2--|
--L--0--0---0-0-0-0--L-0-0---||---3----3-----1--1--0----0--|


                                                   P.M.
  E  E  E.  S S S E  S S S S      Q    E.  S E  E  E    E     W
--------0---0-0-0-0--L-0-0----||---------------------------|-------------------|
--L--0--0---0-0-0-0--L-0-0-0--||------------------------0--|--L----------------|
--L--1--1---1-1-1-1--L-1-1-0-*||-----------0------------2--|--L----------------|
--L--0--0---0-0-0-0--L-0-0-0-*||--0--------0------------0--|--L----------------|
--L--2--2---2-2-2-2--L-2-2----||--3----2-----0--2-------2--|--L----------------|
--L--0--0---0-0-0-0--L-0-0----||--3----3-----1--1--0----0--|--L----------------|


  S S S S S E  S S E  S S S S S    S S S S S E  S S E  S S S S S
--------------------------------|--------------------------------|
--------------------------------|--------------------------------|
--------6-L-7--6-L------------6-|--L-----6-L-7--6-L------------6-|
------5------------5--------5---|------5------------5--------5---|
----7-----------------7-L-7-----|----7-----------------7-L-7-----|
--------------------------------|--------------------------------|


  S S S S S E  S S E  S S S S S    S S S S S E  S S E  S S E.
--------------------------------|------------------------------|
--------------------------------|---------------5-L------------|
--L-----6-L-7--6-L------------6-|--L-----6-L-7------7--6-L-7---|
------5------------5--------5---|------5-----------------------|
----7-----------------7-L-7-----|----7-------------------------|
--------------------------------|------------------------------|


  S S S S S E  S S E  S S S S S    S S S S S E  S S E  S S S S S
--------------------------------|--------------------------------|
--------------------------------|--------------------------------|
--L-----6-L-7--6-L------------6-|--L-----6-L-7--6-L------------6-|
------5------------5--------5---|------5------------5--------5---|
----7-----------------7-L-7-----|----7-----------------7-L-7-----|
--------------------------------|--------------------------------|


  S S S S S E  S S E  S S S S S    S S S S S E  S S S S S S S S S
--------------------------------|---------------------------------|
--------------------------------|-------------------------------0-|
--L-----6-L-7--6-L------------6-|----6-6-6-L-7--6-L-6-6-6-6-6-6-0-|
------5------------5--------5---|----5-5-5-L-5--5-L-5-5-5-5-5-5-0-|
----7-----------------7-L-7-----|----7-7-7-L-7--7-L-7-7-7-7-7-7---|
--------------------------------|---------------------------------|


  W                   W                   W                   W
-------------------|-------------------|-------------------|-------------------|
-------------------|-------------------|-------------------|-------------------|
-------------------|-------------------|-------------------|-------------------|
-------------------|-------------------|-------------------|-------------------|
-------------------|-------------------|-------------------|-------------------|
-------------------|-------------------|-------------------|-------------------|


  W                   W                   W                   W
-------------------|-------------------|-------------------|-------------------|
-------------------|-------------------|-------------------|-------------------|
-------------------|-------------------|-------------------|-------------------|
-------------------|-------------------|-------------------|-------------------|
-------------------|-------------------|-------------------|-------------------|
-------------------|-------------------|-------------------|-------------------|


                   P.M.
  Q    E.  S E  E  E    E     E  E  E.  S S S E  S S S S
---------------------------|--------0---0-0-0-0--L-0-0---|
------------------------0--|--L--0--0---0-0-0-0--L-0-0-0-|
-----------0------------2--|--L--1--1---1-1-1-1--L-1-1-0-|
--0--------0------------0--|--L--0--0---0-0-0-0--L-0-0-0-|
--3----2-----0--2-------2--|--L--2--2---2-2-2-2--L-2-2---|
--3----3-----1--1--0----0--|--L--0--0---0-0-0-0--L-0-0---|


                     P.M.
    Q    E.  S E  E  E    E     E  E  E.  S S S E  S S S S
|----------------------------|--------0---0-0-0-0--L-0-0----||
|-------------------------0--|--L--0--0---0-0-0-0--L-0-0-0--||
|*-----------0------------2--|--L--1--1---1-1-1-1--L-1-1-0-*||
|*--0--------0------------0--|--L--0--0---0-0-0-0--L-0-0-0-*||
|---3----2-----0--2-------2--|--L--2--2---2-2-2-2--L-2-2----||
|---3----3-----1--1--0----0--|--L--0--0---0-0-0-0--L-0-0----||


                   P.M.
  Q    E.  S E  E  E    E     W
---------------------------|-------------------||
------------------------0--|--L----------------||
-----------0------------2--|--L----------------||
--0--------0------------0--|--L----------------||
--3----2-----0--2-------2--|--L----------------||
--3----3-----1--1--0----0--|--L----------------||


================================================================
              3rd Guitar- Overdriven Guitar (Tuning: Standard)
================================================================
Guitar 3
     W                   W                   W
E||-------------------|-------------------|-------------------|
B||-------------------|-------------------|-------------------|
G||-------------------|-------------------|-------------------|
D||-------------------|-------------------|-------------------|
A||-------------------|-------------------|-------------------|
E||-------------------|-------------------|-------------------|


  W                   W                   W                   W
-------------------|-------------------|-------------------|-------------------|
-------------------|-------------------|-------------------|-------------------|
-------------------|-------------------|-------------------|-------------------|
-------------------|-------------------|-------------------|-------------------|
-------------------|-------------------|-------------------|-------------------|
-------------------|-------------------|-------------------|-------------------|


  W                   W                   W                   W
-------------------|-------------------|-------------------|-------------------|
-------------------|-------------------|-------------------|-------------------|
-------------------|-------------------|-------------------|-------------------|
-------------------|-------------------|-------------------|-------------------|
-------------------|-------------------|-------------------|-------------------|
-------------------|-------------------|-------------------|-------------------|


  H        Q    E  S S    E.  S S S E  S S E  E  S S
---------------------x-|--3---3-3-3-5--L-5-5--5--5-5-|
---------------------x-|--3---3-3-3-5--L-5-5--5--5-5-|
-------------------x-x-|--0---0-0-0-0--L-0-0--0--0-0-|
-------------------x-x-|--0---0-0-0-0--L-0-0--0--0-0-|
-------------------x---|--2---2-2-2-4--L-4-4--4--4-4-|
-------------------x---|--3---3-3-3-5----5-5--5--5-5-|


  E.  S S S E  S S E  S S E     E.  S S S E  S S E  E  S S
--8---8-8-8-8----8-8--8-8----|--3---3-3-3-5--L-5-5--5--5-5-|
--8---8-8-8-8--L-8-8--8-8----|--3---3-3-3-5--L-5-5--5--5-5-|
--0---0-0-0-0--L-0-0--0-0-0--|--0---0-0-0-0--L-0-0--0--0-0-|
--0---0-0-0-0--L-0-0--0-0-0--|--0---0-0-0-0--L-0-0--0--0-0-|
--7---7-7-7-7--L-7-7--7-7----|--2---2-2-2-4--L-4-4--4--4-4-|
--8---8-8-8-8--L-8-8--8-8----|--3---3-3-3-5----5-5--5--5-5-|


  E.  S S S E  S S E  S S E     E.  S S S E  S S E  E  S S
--8---8-8-8-8----8-8--8-8----|--3---3-3-3-5--L-5-5--5--5-5-|
--8---8-8-8-8--L-8-8--8-8----|--3---3-3-3-5--L-5-5--5--5-5-|
--0---0-0-0-0--L-0-0--0-0-0--|--0---0-0-0-0--L-0-0--0--0-0-|
--0---0-0-0-0--L-0-0--0-0-0--|--0---0-0-0-0--L-0-0--0--0-0-|
--7---7-7-7-7--L-7-7--7-7----|--2---2-2-2-4--L-4-4--4--4-4-|
--8---8-8-8-8--L-8-8--8-8----|--3---3-3-3-5----5-5--5--5-5-|


  E.  S S S E  S S E  S S E     E.  S S S E  S S E  E  S S
--8---8-8-8-8----8-8--8-8----|--3---3-3-3-5--L-5-5--5--5-5-|
--8---8-8-8-8--L-8-8--8-8----|--3---3-3-3-5--L-5-5--5--5-5-|
--0---0-0-0-0--L-0-0--0-0-0--|--0---0-0-0-0--L-0-0--0--0-0-|
--0---0-0-0-0--L-0-0--0-0-0--|--0---0-0-0-0--L-0-0--0--0-0-|
--7---7-7-7-7--L-7-7--7-7----|--2---2-2-2-4--L-4-4--4--4-4-|
--8---8-8-8-8--L-8-8--8-8----|--3---3-3-3-5----5-5--5--5-5-|


                                                 P.M.
  E.  S S S E  S S E  S S E     Q    E.  S E  E  E    E     E  E  H.
--8---8-8-8-8----8-8--8-8----|---------------------------|---------------------|
--8---8-8-8-8--L-8-8--8-8----|------------------------0--|--L--0--L------------|
--0---0-0-0-0--L-0-0--0-0-0--|-----------0------------2--|--L--1--L------------|
--0---0-0-0-0--L-0-0--0-0-0--|--0--------0------------0--|--L--0--L------------|
--7---7-7-7-7--L-7-7--7-7----|--3----2-----0--2-------2--|--L--2--L------------|
--8---8-8-8-8--L-8-8--8-8----|--3----3-----1--1--0----0--|--L--0--L------------|


  W                   W                   W                   W
-------------------|-------------------|-------------------|-------------------|
-------------------|-------------------|-------------------|-------------------|
-------------------|-------------------|-------------------|-------------------|
-------------------|-------------------|-------------------|-------------------|
-------------------|-------------------|-------------------|-------------------|
-------------------|-------------------|-------------------|-------------------|


  W                   W                   W                   W
-------------------|-------------------|-------------------|-------------------|
-------------------|-------------------|-------------------|-------------------|
-------------------|-------------------|-------------------|-------------------|
-------------------|-------------------|-------------------|-------------------|
-------------------|-------------------|-------------------|-------------------|
-------------------|-------------------|-------------------|-------------------|


  W                   W                   H        Q    E  S S
-------------------|-------------------|---------------------x-|
-------------------|-------------------|---------------------x-|
-------------------|-------------------|-------------------x-x-|
-------------------|-------------------|-------------------x-x-|
-------------------|-------------------|-------------------x---|
-------------------|-------------------|-------------------x---|


  E.  S S S E  S S E  E  S S    E.  S S S E  S S E  S S E
--3---3-3-3-5--L-5-5--5--5-5-|--8---8-8-8-8----8-8--8-8----|
--3---3-3-3-5--L-5-5--5--5-5-|--8---8-8-8-8--L-8-8--8-8----|
--0---0-0-0-0--L-0-0--0--0-0-|--0---0-0-0-0--L-0-0--0-0-0--|
--0---0-0-0-0--L-0-0--0--0-0-|--0---0-0-0-0--L-0-0--0-0-0--|
--2---2-2-2-4--L-4-4--4--4-4-|--7---7-7-7-7--L-7-7--7-7----|
--3---3-3-3-5----5-5--5--5-5-|--8---8-8-8-8--L-8-8--8-8----|


  E.  S S S E  S S E  E  S S    E.  S S S E  S S E  S S E
--3---3-3-3-5--L-5-5--5--5-5-|--8---8-8-8-8----8-8--8-8----|
--3---3-3-3-5--L-5-5--5--5-5-|--8---8-8-8-8--L-8-8--8-8----|
--0---0-0-0-0--L-0-0--0--0-0-|--0---0-0-0-0--L-0-0--0-0-0--|
--0---0-0-0-0--L-0-0--0--0-0-|--0---0-0-0-0--L-0-0--0-0-0--|
--2---2-2-2-4--L-4-4--4--4-4-|--7---7-7-7-7--L-7-7--7-7----|
--3---3-3-3-5----5-5--5--5-5-|--8---8-8-8-8--L-8-8--8-8----|


  E.  S S S E  S S E  E  S S    E.  S S S E  S S E  S S E
--3---3-3-3-5--L-5-5--5--5-5-|--8---8-8-8-8----8-8--8-8----|
--3---3-3-3-5--L-5-5--5--5-5-|--8---8-8-8-8--L-8-8--8-8----|
--0---0-0-0-0--L-0-0--0--0-0-|--0---0-0-0-0--L-0-0--0-0-0--|
--0---0-0-0-0--L-0-0--0--0-0-|--0---0-0-0-0--L-0-0--0-0-0--|
--2---2-2-2-4--L-4-4--4--4-4-|--7---7-7-7-7--L-7-7--7-7----|
--3---3-3-3-5----5-5--5--5-5-|--8---8-8-8-8--L-8-8--8-8----|


  E.  S S S E  S S E  E  S S    E.  S S S E  S S E  S S E
--3---3-3-3-5--L-5-5--5--5-5-|--8---8-8-8-8----8-8--8-8----|
--3---3-3-3-5--L-5-5--5--5-5-|--8---8-8-8-8--L-8-8--8-8----|
--0---0-0-0-0--L-0-0--0--0-0-|--0---0-0-0-0--L-0-0--0-0-0--|
--0---0-0-0-0--L-0-0--0--0-0-|--0---0-0-0-0--L-0-0--0-0-0--|
--2---2-2-2-4--L-4-4--4--4-4-|--7---7-7-7-7--L-7-7--7-7----|
--3---3-3-3-5----5-5--5--5-5-|--8---8-8-8-8--L-8-8--8-8----|


                   P.M.
  Q    E.  S E  E  E    E     E  E  E.  S S S E  S S S S
---------------------------|--------0---0-0-0-0--L-0-0---|
------------------------0--|--L--0--0---0-0-0-0--L-0-0-0-|
-----------0------------2--|--L--1--1---1-1-1-1--L-1-1-0-|
--0--------0------------0--|--L--0--0---0-0-0-0--L-0-0-0-|
--3----2-----0--2-------2--|--L--2--2---2-2-2-2--L-2-2---|
--3----3-----1--1--0----0--|--L--0--0---0-0-0-0--L-0-0---|


                     P.M.
    Q    E.  S E  E  E    E     E  E  E.  S S S E  S S S S
|----------------------------|--------0---0-0-0-0--L-0-0----||
|-------------------------0--|--L--0--0---0-0-0-0--L-0-0-0--||
|*-----------0------------2--|--L--1--1---1-1-1-1--L-1-1-0-*||
|*--0--------0------------0--|--L--0--0---0-0-0-0--L-0-0-0-*||
|---3----2-----0--2-------2--|--L--2--2---2-2-2-2--L-2-2----||
|---3----3-----1--1--0----0--|--L--0--0---0-0-0-0--L-0-0----||


                   P.M.
  Q    E.  S E  E  E    E     W                   W
---------------------------|-------------------|-------------------|
------------------------0--|--L----------------|-------------------|
-----------0------------2--|--L----------------|-------------------|
--0--------0------------0--|--L----------------|-------------------|
--3----2-----0--2-------2--|--L----------------|-------------------|
--3----3-----1--1--0----0--|--L----------------|-------------------|


  W                   W                   W                   W
-------------------|-------------------|-------------------|-------------------|
-------------------|-------------------|-------------------|-------------------|
-------------------|-------------------|-------------------|-------------------|
-------------------|-------------------|-------------------|-------------------|
-------------------|-------------------|-------------------|-------------------|
-------------------|-------------------|-------------------|-------------------|


  W                   W                   W
-------------------|-------------------|-------------------|
-------------------|-------------------|-------------------|
-------------------|-------------------|-------------------|
-------------------|-------------------|-------------------|
-------------------|-------------------|-------------------|
-------------------|-------------------|-------------------|


  E.  S S S E  S S E  E  S S    E.  S S S E  S S E  S S E
--3---3-3-3-5--L-5-5--5--5-5-|--8---8-8-8-8----8-8--8-8----|
--3---3-3-3-5--L-5-5--5--5-5-|--8---8-8-8-8--L-8-8--8-8----|
--0---0-0-0-0--L-0-0--0--0-0-|--0---0-0-0-0--L-0-0--0-0-0--|
--0---0-0-0-0--L-0-0--0--0-0-|--0---0-0-0-0--L-0-0--0-0-0--|
--2---2-2-2-4--L-4-4--4--4-4-|--7---7-7-7-7--L-7-7--7-7----|
--3---3-3-3-5----5-5--5--5-5-|--8---8-8-8-8--L-8-8--8-8----|


  E.  S S S E  S S E  E  S S    E.  S S S E  S S E  S S E
--3---3-3-3-5--L-5-5--5--5-5-|--8---8-8-8-8----8-8--8-8----|
--3---3-3-3-5--L-5-5--5--5-5-|--8---8-8-8-8--L-8-8--8-8----|
--0---0-0-0-0--L-0-0--0--0-0-|--0---0-0-0-0--L-0-0--0-0-0--|
--0---0-0-0-0--L-0-0--0--0-0-|--0---0-0-0-0--L-0-0--0-0-0--|
--2---2-2-2-4--L-4-4--4--4-4-|--7---7-7-7-7--L-7-7--7-7----|
--3---3-3-3-5----5-5--5--5-5-|--8---8-8-8-8--L-8-8--8-8----|


  E.  S S S E  S S E  E  S S    E.  S S S E  S S E  S S E
--3---3-3-3-5--L-5-5--5--5-5-|--8---8-8-8-8----8-8--8-8----|
--3---3-3-3-5--L-5-5--5--5-5-|--8---8-8-8-8--L-8-8--8-8----|
--0---0-0-0-0--L-0-0--0--0-0-|--0---0-0-0-0--L-0-0--0-0-0--|
--0---0-0-0-0--L-0-0--0--0-0-|--0---0-0-0-0--L-0-0--0-0-0--|
--2---2-2-2-4--L-4-4--4--4-4-|--7---7-7-7-7--L-7-7--7-7----|
--3---3-3-3-5----5-5--5--5-5-|--8---8-8-8-8--L-8-8--8-8----|


  E.  S S S E  S S E  E  S S    E.  S S S E  S S E  S S E
--3---3-3-3-5--L-5-5--5--5-5-|--8---8-8-8-8----8-8--8-8----|
--3---3-3-3-5--L-5-5--5--5-5-|--8---8-8-8-8--L-8-8--8-8----|
--0---0-0-0-0--L-0-0--0--0-0-|--0---0-0-0-0--L-0-0--0-0-0--|
--0---0-0-0-0--L-0-0--0--0-0-|--0---0-0-0-0--L-0-0--0-0-0--|
--2---2-2-2-4--L-4-4--4--4-4-|--7---7-7-7-7--L-7-7--7-7----|
--3---3-3-3-5----5-5--5--5-5-|--8---8-8-8-8--L-8-8--8-8----|


                   P.M.
  Q    E.  S E  E  E    E     E  E  E.  S S S E  S S S S
---------------------------|--------0---0-0-0-0--L-0-0---|
------------------------0--|--L--0--0---0-0-0-0--L-0-0-0-|
-----------0------------2--|--L--1--1---1-1-1-1--L-1-1-0-|
--0--------0------------0--|--L--0--0---0-0-0-0--L-0-0-0-|
--3----2-----0--2-------2--|--L--2--2---2-2-2-2--L-2-2---|
--3----3-----1--1--0----0--|--L--0--0---0-0-0-0--L-0-0---|


                     P.M.
    Q    E.  S E  E  E    E     E  E  E.  S S S E  S S S S
|----------------------------|--------0---0-0-0-0--L-0-0----||
|-------------------------0--|--L--0--0---0-0-0-0--L-0-0-0--||
|*-----------0------------2--|--L--1--1---1-1-1-1--L-1-1-0-*||
|*--0--------0------------0--|--L--0--0---0-0-0-0--L-0-0-0-*||
|---3----2-----0--2-------2--|--L--2--2---2-2-2-2--L-2-2----||
|---3----3-----1--1--0----0--|--L--0--0---0-0-0-0--L-0-0----||


                   P.M.
  Q    E.  S E  E  E    E     W
---------------------------|-------------------||
------------------------0--|--L----------------||
-----------0------------2--|--L----------------||
--0--------0------------0--|--L----------------||
--3----2-----0--2-------2--|--L----------------||
--3----3-----1--1--0----0--|--L----------------||

======================================================================
And that's it! i'm sorry if its so confusing but i hope this tab helps


Duration Legend
---------------
W - whole
H - half
Q - quarter
E - 8th
S - 16th
T - 32nd
X - 64th
. - note dotted
|-n-|  - n-tuplets


Tablature Legend
----------------
L - tied note
x - dead note
g - grace note
(n) - ghost note
> - accentuded note
NH - natural harmonic
AH - artificial harmonic
TH - tapped harmonic
SH - semi harmonic
PH - pitch harmonic
h - hammer on
p - pull off
b - bend
br - bendRelease
pb - preBend
pbr - preBendRelease
brb - bendReleaseBend
\n/ - tremolo bar dip
\n - tremolo bar dive
-/n - tremolo bar Release up
/n\ - tremolo bar inverted dip
/n - tremolo bar return
-\n - tremolo bar Release down
S - shift slide
s - legato slide
/ -  slide into from below or out of upwards
\ -  slide into from above or out of downwards
~ - vibrato
W - wide vibrato
tr - trill
TP - tremolo picking
T - tapping
S - slap
P - pop
< - fade in
^ - brush up
v - brush down