T.I. - Whatever You Like Chords

 
No chord
    
Standard guitar tuning:
E
A
D
G
B
E
No capo
e-----------------------------------|
B-----6-----------------------------|
G-----7----------5------------------|
D-----7---8---3--5------------------|
A-----5---8---3--3------------------|
E---------6---1---------------------|
e---17-17-15-13---17-17-15-13---17-17-15-13---17-17-15-17-18-17--17-18-15-|
B-------------------------------------------------------------------------|
G-------------------------------------------------------------------------|
D-------------------------------------------------------------------------|
A-------------------------------------------------------------------------|
E-------------------------------------------------------------------------|

All Content on this page is the property of the copyright owner of the original composition.