Toto - Hold The Line Text Guitar Tab

Learn the song with the online tablature player
Toto: hold the line guitar tab      by A.B.A (blood)

intro=chours
  f#m      c# d d  e     x2
|-----------------------|-------------|
|-----------------------|-------------|
|-----------------------|-------------|
|-11\\-----6--7-7--9\\--|--2----------|
|--9\\-----4--5-5--7\\--|----4-3-2----|
|-----------------------|-------------|

verse
                         x2                                  x2
|--------------------------|-----------------------------------|
|--------------------------|-----------------------------------|
|--------------------------|-----------------------------------|
|----------2-4---2-4-------|-----------------------------------|
|--2-3-4--4-----4----4-3-2-|--2-3-4---3-4-5---4-5---7---4-3-2--|
|--------------------------|-----------------------------------|

|-----------------------------|
|-----------------------------|
|-----------------------------|
|-----------------------------|
|-2-3-4---3-4-5-----4-5---7---|
|-----------------------------|

chours

verse

chours

solo

|--------------------------------14--14-16-17-16p14--------------------|
|-(5\17)-----17b19-17b19---17b19---------------------(17p14)-----------|
|-(5\17)------------------------------------------------------16p14vv--|
|----------------------------------------------------------------------|
|----------------------------------------------------------------------|
|----------------------------------------------------------------------|

|----------------------------------------------------------------------|
|----------------17----------------------------------------14vv--------|
|-------14-16b18----16b18-16b-(18)----16--14-16-16-14--16-------14vv---|
|--16/-----------------------------------------------------------------|
|----------------------------------------------------------------------|
|----------------------------------------------------------------------|

|----------------------------------------------------------------------|
|----------------------------------------------------------------------|
|----------------------------------------------------------------14----|
|----16vv-14-11---------------------12h14p12-------7------/(12)--------|
|---------------14-12--------(12)------------/------9-----/(12)--------|
|-----------------------14b-----------------/--------------------------|

|------------14-----14------14-----14-----14-------17b19-17b19---------|
|----------14--17p14---17p14--17p14--17p14--17p14---------------17b19--|
|--14b-16--------------------------------------------------------------|
|---------------------(quick)------------------------------------------|
|----------------------------------------------------------------------|
|----------------------------------------------------------------------|

|----------------------------------------------------------------------|
|-17--14--18vv-18vvv18vv--------/13/15-18---20b21-21b23--21b23vv-------|
|----------------------------------------------------------------------|
|----------------------------------------------------------------------|
|----------------------------------------------------------------------|
|----------------------------------------------------------------------|

|----------------------------------------------------------------------|
|----------------------------------------------------------------------|
|-/-13h14h16p14p13--------------------------------------14h16p14-------|
|-/----------------16p14---------------------------14h16-----------16--|
|------------------------16p14---------------14-16---------------------|
|------------------------------16p14vv-16-14---------------------------|

|----------------------------------------------------------------------|
|----------------------19b20-(17)-14h17vv--20b22-18h15p18----16/18/20--|
|--------14h16p14------------------------------------------------------|
|--14h16-----------16--------------------------------------------------|
|----------------------------------------------------------------------|
|----------------------------------------------------------------------|

|-----------(18)--20b22-20-18-17-17b18--15-----------------------------|
|--20-20b22---------------------------------18-15---18p15--13p11-------|
|----------------------------------------------------------------------|
|----------------------------------------------------------------------|
|----------------------------------------------------------------------|
|----------------------------------------------------------------------|

|------------------------------------------------|
|---10----10----10--9-----9-----9b13vv-----------|
|---12b14-12b14---9-11b13-11b13------------------|
|------------------------------------------------|
|------------------------------------------------|
|------------------------------------------------|

verse

chours

END