The Weakerthans - Bigfoot Chords

 
No chord
    
Standard guitar tuning:
E
A
D
G
B
E
No capo

Intro

on disc):
-0-----0-------|
-------------3-|
-------------2-|
-7-----2-----4-|
-4-----2-------|
---------------|

Verse

-----------------------------------------------------------------------------|
--------------------------------------------------------------------0--------|
----2--------------------4-------------------2----------------------2--------|
----2--------------------6-------------------4----------------------0--------|
----0----------------------------------------4-------------------------------|
-------------------------0-------------------2-------------------------------|
Changed the oils and oiled the squeaks, patched the holes and fluid leaks And wait to take the TV crews across the creaking ice the news
-----------------------------------------|
-----------------------------------------|
-----2--------------2-----2-----------2--|
-----2--------------2-----2-----------2--|
-----0--------------4-----2-----------0--|
-----------------------------------------|
at dusk beneath a dia- betic moon. is howling to the timberwolves and soon

Chorus

-----------------------------------------------------------------|
--------------------7-----5----7-----------5----------9-------10-|
-2----4-------------7-----6----7-----------6----------9-------11-|
-4----4-------------0----------0---------------------------------|
--------------------------0----------------0----------7--------9-|
-2----4----------------------------------------------------------|
I'll go through it all again, watch their doubtful smiles begin
---------0--------------0---------------------------|
----------------------------------------------------|
---------7-----------------------------7------2-----|
---------7-----------------------------7------2-----|
---------------------------------------0------0-----|
------------------------7---------------------------|
but the visions that I see believe in me.

Verse

-----------------------------------------------------------------------------|
------------------------------------------------------------------0----------|
-----2--------------------4-------------------2-------------------2----------|
-----2--------------------6-------------------4-------------------0----------|
-----0----------------------------------------4------------------------------|
--------------------------0-------------------2------------------------------|
So praise the things I can't forget with burgers and a silhouette I'll listen to the south wind sigh with rumors and regrets and I
-----------------------------------------|
-----------------------------------------|
-----2--------------2-----2-----------2--|
-----2--------------2-----2-----------2--|
-----0--------------4-----2-----------0--|
-----------------------------------------|
on t-shirts at the council general store don't wanna about it any more Chorus [2x] Won't go through it all again watch their doubtful smiles begin when the visions that I see believe in me ...Well the visions that I see they will believe me.
End
-----------------------------------------------------------------------------|
--------------------------------0--------------------------------------------|
-4-------------2----------------2------------2------------2-----2---------2--|
-6-------------4----------------0------------2------------2-----2---------2--|
---------------4-----------------------------0------------4---------------0--|
-0-------------2-------------------------------------------------------------|

All Content on this page is the property of the copyright owner of the original composition.