Wizo - Poure De Cire Chords

 
7 fr
         
         
         
         
         
1
3
4
2
1
1
         
         
         
         
         
X
2
1
X
3
         
         
         
         
         
X
1
4
4
4
X
         
         
         
         
         
X
1
3
3
3
1
4 fr
         
         
         
         
         
4
3
1
1
1
X
4 fr
         
         
         
         
         
3
2
1
1
1
4

9 fr
         
         
         
         
         
X
X
1
3
4
3
11 fr
         
         
         
         
         
X
4
3
1
2
1
No chord
    
Standard guitar tuning:
E
A
D
G
B
E
No capo

Intro

GIT 1:
e|-----------------------------------------------------------------------------------|
B|-8--0--8--0--7--0--5--0--3--0--1--0--1-1-0-0-1-1-0-0-1-1-0--10--0--8--0--7--0--5--0|
G|-----------------------------------------------------------------------------------|
D|-----------------------------------------------------------------------------------|
A|-----------------------------------------------------------------------------------|
E|-----------------------------------------------------------------------------------|
e|---------------------------------------------------------------------------|
B|--1-1-0-0-1-1-0-0-1-1-0--10--0--8--0--7--0--5--0---------------------------|
G|---------------------------------------------------------------------------|
D|---------------------------------------------------------------------------|
A|---------------------------------------------------------------------------|
E|---------------------------------------------------------------------------|
GIT 2:
e|-----------------------|
B|-----------------------|
G|-----------------------|
D|-----------------------|
A|-----5-6-7-------------|
E|---7-------------------|

Verse

e|-----------------------------------------------------|
B|-----------------------------------------------------|
G|-------------------------------------555-555-555-555-|
D|-2--222-222-222-222-222-222-222-222--555-555-555-555-|
A|-2--222-222-222-222-222-222-222-222--333-333-333-333-|
E|-0--000-000-000-000-000-000-000-000------------------|
PM . ... ... ... ... ... ... ... ... ... ... ... ....
e|------------------------------------------------------------|
B|------------------------------------------------------------|
G|------------------------------------------------------------|
D|-555-555-555-555--333-333-333-333--222-222-222-222--444-444-|
A|-555-555-555-555--333-333-333-333--222-222-222-222--444-444-|
E|-333-333-333-333--111-111-111-111--000-000-000-000--222-222-|
e|----------------------------|
B|----------------------------|
G|----------------------------|
D|-444-444--444-444--444-444--|
A|-444-444--111-111--222-222--|
E|-222-222--------------------|
e|-----------------------------------------------------|
B|-----------------------------------------------------|
G|-------------------------------------555-555-555-555-|
D|-2--222-222-222-222-222-222-222-222--555-555-555-555-|
A|-2--222-222-222-222-222-222-222-222--333-333-333-333-|
E|-0--000-000-000-000-000-000-000-000------------------|
PM . ... ... ... ... ... ... ... ... ... ... ... ....
e|----------------------------------------------------|
B|----------------------------------------------------|
G|----------------------------------------------------|
D|-555-555-555-555--333-333-333-333--222-222-222-222--|
A|-555-555-555-555--333-333-333-333--222-222-222-222--|
E|-333-333-333-333--111-111-111-111--000-000-000-000--|
e|----------------|
B|----------------|
G|-------4--4-----|
D|-4--4--4--4--2--|
A|-4--4--2--2--2--|
E|-2--2--------0--|

Chorus

e|---------------------|--------------------|
B|---------------------|--------------------|
G|-------------5-5-----|----------4-4-4-----|
D|-5--5--5--5--5-5--2--|-5-5-5-5--4-4-4--2--| 2x
A|-5--5--5--5--3-3--2--|-5-5-5-5--2-2-2--2--|
E|-3--3--3--3-------0--|-3-3-3-3---------0--|
PM . . . . . . . | / slide up | \ slide down | B hammer-on | p pull-off | ~ vibrato | + harmonic | x Mute note

All Content on this page is the property of the copyright owner of the original composition.