Pink Floyd - Money Text Guitar Tab

Learn the song with the online tablature player
Song: Money
Band: Pink Flyod
Guitarist: David Gilmore

Intro to the solo

e|-----------------|
b|-----------------|
g|-4-4-4-4-4-4-----| X4
d|-4-4-4-4-4-4-----|
a|-2-2-2-2-2-2-----|
E|-----------------|

e|--------------------------------10----------------12sb-------|
b|---------10sb----7-10--------12----12-12----12-12------12-12-|
g|-9b-7~----------------9b-7~----------------------------------|
d|-------------------------------------------------------------|
a|-------------------------------------------------------------|
E|-------------------------------------------------------------|

e|------------------7------------10-12-12b-------12-|
b|--------------------7-10-10/12-----------12-12----|
g|-9b-7-9p7------9b---------------------------------|
d|----------9~--------------------------------------|
a|--------------------------------------------------|
E|--------------------------------------------------|

e|-12b~---10-12-------------------------------------------|
b|--------------12-10-------------------------------------|
g|--------------------9-7------------------------7-7------|
d|------------------------9-7-----------7--9-7-------9b---|
a|----------------------------7-5---7-9--------9----------|
E|--------------------------------7-----------------------|

e|---7----------------10-12-12b--------|
b|-7---10-10/12-12-12-----------12-12--|
g|-------------------------------------|
d|-------------------------------------|
a|-------------------------------------|
E|-------------------------------------|

e|-14b--14-12---------------------------------------|
b|------------15-12----------10b-10-8-7-------------|
g|------------------14\9/11-------------9-7-6-------|
d|--------------------------------------------10-9~-|
a|--------------------------------------------------|
E|--------------------------------------------------|

e|-------------------------------|
b|-7----9-----10--1010101010-----|
g|-7----9-----11--1111111111-----|
d|---9~---9~-----------------9sb-|
a|-------------------------------|
E|-------------------------------|

e|-7-----7--------------12---7--------------------------------|
b|-------7----12-12-12b------7---------------------7-7-7------|
g|--------------------------------9sb---7-9--------7-7-7---9b-|
d|------------------------------------------9-9~---7-7-7h9----|
a|------------------------------------------------------------|
E|------------------------------------------------------------|

e|----------------------------------------------10-------10-12b-12b-12p10--|
b|-------7b-7b-------------------------------12-------10-------------------|
g|9b-----9b-9b---9bp7-9b-9b--p0-7brb---------------------------------------|
d|-----------------------------------9-------------------------------------|
a|-------------------------------------------------------------------------|
E|-------------------------------------------------------------------------|

e|-----------------------------------------------|
b|-10-10-10--------------------------------------|
g|----------9/11-9brb----------------------------|
d|--------------------9-----7--------------------|
a|----------------------------10-9-5-7-5-4-0-3-2-|
E|-----------------------------------------------|

e|-------------------------10-12-12b------10-12----|
b|-7b----9b----------10-12----------------------12-|
g|-7b----9b-----7/11-------------------------------|
d|----9~----9~-------------------------------------|
a|-------------------------------------------------|
E|-------------------------------------------------|

e|-19-22b-22-22-22----------------------------------------------|
b|-----------------22b~-------15-17b-15b-------17b---17-15b-----|
g|-------------------------16------------16~----------------16~-|
d|--------------------------------------------------------------|
a|--------------------------------------------------------------|
E|--------------------------------------------------------------|

e|------------------10-------------22b-22-22-22------|
b|---------------12----12-------19--------------22b~-|
g|-9-7-9-9/11----------------------------------------|
d|---------------------------------------------------|
a|---------------------------------------------------|
E|---------------------------------------------------|

e|-----------------------------------------22-----|
b|-22b-22b------------------19-19---22-22b----22b-|
g|------------21b-19~---21b-21--------------------|
d|------------------------------------------------|
a|------------------------------------------------|
E|------------------------------------------------|

e|----22b-22-22-22-------------------------------|
b|-19--------------22b-19-22p19------------------|
g|------------------------------19---------------|
d|---------------------------------21p19-19------|
a|------------------------------------------21~\-|
E|-----------------------------------------------|

e|---------------------|
b|---------------------|
g|---------------------|
d|-9-7-----------------|
a|-----10-6-7-5-4-3-2--|
E|---------------------|

Symbol Key:
b - Bend
sb - Slow bend
h - Hammer On
p- Pull off
~ - Vibrato
/ - slide up to note
\ - slide down to note
brb - bend the note, return to original note, then bend note again
      without plucking the string again!